  0
SECTION
  2
HEADER
  9
$ACADVER
  1
AC1015
  9
$ACADMAINTVER
 70
    20
  9
$DWGCODEPAGE
  3
ANSI_1252
  9
$INSBASE
 10
0.0
 20
0.0
 30
0.0
  9
$EXTMIN
 10
4476.115150910046
 20
1137.910687395022
 30
0.0
  9
$EXTMAX
 10
4478.821511522154
 20
1138.43444792293
 30
0.0
  9
$LIMMIN
 10
0.0
 20
0.0
  9
$LIMMAX
 10
420.0
 20
297.0
  9
$ORTHOMODE
 70
     1
  9
$REGENMODE
 70
     1
  9
$FILLMODE
 70
     1
  9
$QTEXTMODE
 70
     0
  9
$MIRRTEXT
 70
     1
  9
$LTSCALE
 40
1.0
  9
$ATTMODE
 70
     1
  9
$TEXTSIZE
 40
2.5
  9
$TRACEWID
 40
1.0
  9
$TEXTSTYLE
  7
SANINDUSA
  9
$CLAYER
  8
cotas
  9
$CELTYPE
  6
ByLayer
  9
$CECOLOR
 62
   256
  9
$CELTSCALE
 40
1.0
  9
$DISPSILH
 70
     0
  9
$DIMSCALE
 40
1.0
  9
$DIMASZ
 40
2.0
  9
$DIMEXO
 40
1.0
  9
$DIMDLI
 40
1.0
  9
$DIMRND
 40
0.0
  9
$DIMDLE
 40
0.0
  9
$DIMEXE
 40
1.0
  9
$DIMTP
 40
0.0
  9
$DIMTM
 40
0.0
  9
$DIMTXT
 40
2.0
  9
$DIMCEN
 40
0.0
  9
$DIMTSZ
 40
0.0
  9
$DIMTOL
 70
     0
  9
$DIMLIM
 70
     0
  9
$DIMTIH
 70
     0
  9
$DIMTOH
 70
     0
  9
$DIMSE1
 70
     0
  9
$DIMSE2
 70
     0
  9
$DIMTAD
 70
     1
  9
$DIMZIN
 70
     8
  9
$DIMBLK
  1

  9
$DIMASO
 70
     1
  9
$DIMSHO
 70
     1
  9
$DIMPOST
  1

  9
$DIMAPOST
  1

  9
$DIMALT
 70
     0
  9
$DIMALTD
 70
     3
  9
$DIMALTF
 40
0.03937007874016
  9
$DIMLFAC
 40
1.0
  9
$DIMTOFL
 70
     1
  9
$DIMTVP
 40
0.0
  9
$DIMTIX
 70
     0
  9
$DIMSOXD
 70
     0
  9
$DIMSAH
 70
     0
  9
$DIMBLK1
  1

  9
$DIMBLK2
  1

  9
$DIMSTYLE
  2
SANINDUSA
  9
$DIMCLRD
 70
   256
  9
$DIMCLRE
 70
   256
  9
$DIMCLRT
 70
   256
  9
$DIMTFAC
 40
1.0
  9
$DIMGAP
 40
1.0
  9
$DIMJUST
 70
     0
  9
$DIMSD1
 70
     0
  9
$DIMSD2
 70
     0
  9
$DIMTOLJ
 70
     0
  9
$DIMTZIN
 70
     8
  9
$DIMALTZ
 70
     0
  9
$DIMALTTZ
 70
     0
  9
$DIMUPT
 70
     0
  9
$DIMDEC
 70
     1
  9
$DIMTDEC
 70
     1
  9
$DIMALTU
 70
     2
  9
$DIMALTTD
 70
     3
  9
$DIMTXSTY
  7
SANINDUSA
  9
$DIMAUNIT
 70
     0
  9
$DIMADEC
 70
     1
  9
$DIMALTRND
 40
0.0
  9
$DIMAZIN
 70
     0
  9
$DIMDSEP
 70
    44
  9
$DIMATFIT
 70
     3
  9
$DIMFRAC
 70
     0
  9
$DIMLDRBLK
  1

  9
$DIMLUNIT
 70
     2
  9
$DIMLWD
 70
    -1
  9
$DIMLWE
 70
    -1
  9
$DIMTMOVE
 70
     0
  9
$LUNITS
 70
     2
  9
$LUPREC
 70
     4
  9
$SKETCHINC
 40
1.0
  9
$FILLETRAD
 40
3.0
  9
$AUNITS
 70
     0
  9
$AUPREC
 70
     0
  9
$MENU
  1
.
  9
$ELEVATION
 40
0.0
  9
$PELEVATION
 40
0.0
  9
$THICKNESS
 40
0.0
  9
$LIMCHECK
 70
     0
  9
$CHAMFERA
 40
10.0
  9
$CHAMFERB
 40
10.0
  9
$CHAMFERC
 40
20.0
  9
$CHAMFERD
 40
0.0
  9
$SKPOLY
 70
     0
  9
$TDCREATE
 40
2453049.631142754
  9
$TDUCREATE
 40
2453049.589476088
  9
$TDUPDATE
 40
2453923.409364143
  9
$TDUUPDATE
 40
2453923.367697477
  9
$TDINDWG
 40
0.0077962269
  9
$TDUSRTIMER
 40
0.0077962269
  9
$USRTIMER
 70
     1
  9
$ANGBASE
 50
0.0
  9
$ANGDIR
 70
     0
  9
$PDMODE
 70
     0
  9
$PDSIZE
 40
0.0
  9
$PLINEWID
 40
0.0
  9
$SPLFRAME
 70
     0
  9
$SPLINETYPE
 70
     6
  9
$SPLINESEGS
 70
     8
  9
$HANDSEED
  5
1686
  9
$SURFTAB1
 70
     6
  9
$SURFTAB2
 70
     6
  9
$SURFTYPE
 70
     6
  9
$SURFU
 70
     6
  9
$SURFV
 70
     6
  9
$UCSBASE
  2

  9
$UCSNAME
  2

  9
$UCSORG
 10
0.0
 20
0.0
 30
0.0
  9
$UCSXDIR
 10
1.0
 20
0.0
 30
0.0
  9
$UCSYDIR
 10
0.0
 20
1.0
 30
0.0
  9
$UCSORTHOREF
  2

  9
$UCSORTHOVIEW
 70
     0
  9
$UCSORGTOP
 10
0.0
 20
0.0
 30
0.0
  9
$UCSORGBOTTOM
 10
0.0
 20
0.0
 30
0.0
  9
$UCSORGLEFT
 10
0.0
 20
0.0
 30
0.0
  9
$UCSORGRIGHT
 10
0.0
 20
0.0
 30
0.0
  9
$UCSORGFRONT
 10
0.0
 20
0.0
 30
0.0
  9
$UCSORGBACK
 10
0.0
 20
0.0
 30
0.0
  9
$PUCSBASE
  2

  9
$PUCSNAME
  2

  9
$PUCSORG
 10
0.0
 20
0.0
 30
0.0
  9
$PUCSXDIR
 10
1.0
 20
0.0
 30
0.0
  9
$PUCSYDIR
 10
0.0
 20
1.0
 30
0.0
  9
$PUCSORTHOREF
  2

  9
$PUCSORTHOVIEW
 70
     0
  9
$PUCSORGTOP
 10
0.0
 20
0.0
 30
0.0
  9
$PUCSORGBOTTOM
 10
0.0
 20
0.0
 30
0.0
  9
$PUCSORGLEFT
 10
0.0
 20
0.0
 30
0.0
  9
$PUCSORGRIGHT
 10
0.0
 20
0.0
 30
0.0
  9
$PUCSORGFRONT
 10
0.0
 20
0.0
 30
0.0
  9
$PUCSORGBACK
 10
0.0
 20
0.0
 30
0.0
  9
$USERI1
 70
     0
  9
$USERI2
 70
     0
  9
$USERI3
 70
     0
  9
$USERI4
 70
     0
  9
$USERI5
 70
     0
  9
$USERR1
 40
0.0
  9
$USERR2
 40
0.0
  9
$USERR3
 40
0.0
  9
$USERR4
 40
0.0
  9
$USERR5
 40
0.0
  9
$WORLDVIEW
 70
     1
  9
$SHADEDGE
 70
     3
  9
$SHADEDIF
 70
    70
  9
$TILEMODE
 70
     1
  9
$MAXACTVP
 70
    64
  9
$PINSBASE
 10
0.0
 20
0.0
 30
0.0
  9
$PLIMCHECK
 70
     0
  9
$PEXTMIN
 10
1.000000000000000E+20
 20
1.000000000000000E+20
 30
1.000000000000000E+20
  9
$PEXTMAX
 10
-1.000000000000000E+20
 20
-1.000000000000000E+20
 30
-1.000000000000000E+20
  9
$PLIMMIN
 10
0.0
 20
0.0
  9
$PLIMMAX
 10
420.0
 20
297.0
  9
$UNITMODE
 70
     0
  9
$VISRETAIN
 70
     1
  9
$PLINEGEN
 70
     0
  9
$PSLTSCALE
 70
     1
  9
$TREEDEPTH
 70
  3020
  9
$CMLSTYLE
  2
Standard
  9
$CMLJUST
 70
     0
  9
$CMLSCALE
 40
20.0
  9
$PROXYGRAPHICS
 70
     1
  9
$MEASUREMENT
 70
     1
  9
$CELWEIGHT
370
    -1
  9
$ENDCAPS
280
     0
  9
$JOINSTYLE
280
     0
  9
$LWDISPLAY
290
     0
  9
$INSUNITS
 70
     4
  9
$HYPERLINKBASE
  1

  9
$STYLESHEET
  1
monochrome.ctb
  9
$XEDIT
290
     1
  9
$CEPSNTYPE
380
     0
  9
$PSTYLEMODE
290
     1
  9
$FINGERPRINTGUID
  2
{B98A73AA-52AA-4C10-B469-C0E7150AC31F}
  9
$VERSIONGUID
  2
{AAC9D4F6-64B2-4BC8-8E27-0C54F02513BE}
  9
$EXTNAMES
290
     1
  9
$PSVPSCALE
 40
0.0
  9
$OLESTARTUP
290
     0
  0
ENDSEC
  0
SECTION
  2
CLASSES
  0
CLASS
  1
ACDBDICTIONARYWDFLT
  2
AcDbDictionaryWithDefault
  3
ObjectDBX Classes
 90
        0
280
     0
281
     0
  0
CLASS
  1
ACDBPLACEHOLDER
  2
AcDbPlaceHolder
  3
ObjectDBX Classes
 90
        0
280
     0
281
     0
  0
CLASS
  1
LAYOUT
  2
AcDbLayout
  3
ObjectDBX Classes
 90
        0
280
     0
281
     0
  0
CLASS
  1
DICTIONARYVAR
  2
AcDbDictionaryVar
  3
ObjectDBX Classes
 90
        0
280
     0
281
     0
  0
CLASS
  1
DIMASSOC
  2
AcDbDimAssoc
  3
"AcDbDimAssoc|Product Desc:     AcDim ARX App For Dimension|Company:          Autodesk, Inc.|WEB Address:      www.autodesk.com"
 90
    32768
280
     0
281
     0
  0
CLASS
  1
TABLESTYLE
  2
AcDbTableStyle
  3
ObjectDBX Classes
 90
     2047
280
     0
281
     0
  0
ENDSEC
  0
SECTION
  2
TABLES
  0
TABLE
  2
VPORT
  5
8
330
0
100
AcDbSymbolTable
 70
     2
  0
VPORT
  5
167E
330
8
100
AcDbSymbolTableRecord
100
AcDbViewportTableRecord
  2
*Active
 70
     0
 10
0.0
 20
0.0
 11
1.0
 21
1.0
 12
4477.468331216099
 22
1138.172567658976
 13
0.0
 23
0.0
 14
10.0
 24
10.0
 15
10.0
 25
10.0
 16
0.0
 26
0.0
 36
1.0
 17
0.0
 27
0.0
 37
0.0
 40
1.704356252923212
 41
1.593939393939393
 42
50.0
 43
0.0
 44
0.0
 50
0.0
 51
0.0
 71
     0
 72
   100
 73
     1
 74
     2
 75
     0
 76
     0
 77
     0
 78
     0
281
     0
 65
     1
110
0.0
120
0.0
130
0.0
111
1.0
121
0.0
131
0.0
112
0.0
122
1.0
132
0.0
 79
     0
146
0.0
  0
ENDTAB
  0
TABLE
  2
LTYPE
  5
5
330
0
100
AcDbSymbolTable
 70
     3
  0
LTYPE
  5
14
330
5
100
AcDbSymbolTableRecord
100
AcDbLinetypeTableRecord
  2
ByBlock
 70
     0
  3

 72
    65
 73
     0
 40
0.0
  0
LTYPE
  5
15
330
5
100
AcDbSymbolTableRecord
100
AcDbLinetypeTableRecord
  2
ByLayer
 70
     0
  3

 72
    65
 73
     0
 40
0.0
  0
LTYPE
  5
16
330
5
100
AcDbSymbolTableRecord
100
AcDbLinetypeTableRecord
  2
Continuous
 70
     0
  3
Solid line
 72
    65
 73
     0
 40
0.0
  0
LTYPE
  5
2D
330
5
100
AcDbSymbolTableRecord
100
AcDbLinetypeTableRecord
  2
DASHDOT
 70
     0
  3
Dash dot __ . __ . __ . __ . __ . __ . __ . __
 72
    65
 73
     4
 40
25.4
 49
12.7
 74
     0
 49
-6.349999999999999
 74
     0
 49
0.0
 74
     0
 49
-6.349999999999999
 74
     0
  0
LTYPE
  5
2E
330
5
100
AcDbSymbolTableRecord
100
AcDbLinetypeTableRecord
  2
HIDDEN
 70
     0
  3
Hidden __ __ __ __ __ __ __ __ __ __ __ __ __ _
 72
    65
 73
     2
 40
9.524999999999998
 49
6.349999999999999
 74
     0
 49
-3.174999999999999
 74
     0
  0
ENDTAB
  0
TABLE
  2
LAYER
  5
2
330
0
100
AcDbSymbolTable
 70
    17
  0
LAYER
  5
10
330
2
100
AcDbSymbolTableRecord
100
AcDbLayerTableRecord
  2
0
 70
     0
 62
     7
  6
Continuous
370
    -3
390
F
  0
LAYER
  5
2F
330
2
100
AcDbSymbolTableRecord
100
AcDbLayerTableRecord
  2
1
 70
     0
 62
     1
  6
Continuous
370
    -3
390
F
  0
LAYER
  5
30
330
2
100
AcDbSymbolTableRecord
100
AcDbLayerTableRecord
  2
2
 70
     0
 62
     2
  6
Continuous
370
    -3
390
F
  0
LAYER
  5
31
330
2
100
AcDbSymbolTableRecord
100
AcDbLayerTableRecord
  2
3
 70
     0
 62
     3
  6
Continuous
370
    -3
390
F
  0
LAYER
  5
32
330
2
100
AcDbSymbolTableRecord
100
AcDbLayerTableRecord
  2
4
 70
     0
 62
     4
  6
Continuous
370
    -3
390
F
  0
LAYER
  5
33
330
2
100
AcDbSymbolTableRecord
100
AcDbLayerTableRecord
  2
5
 70
     0
 62
     5
  6
Continuous
370
    -3
390
F
  0
LAYER
  5
34
330
2
100
AcDbSymbolTableRecord
100
AcDbLayerTableRecord
  2
6
 70
     0
 62
     6
  6
Continuous
370
    -3
390
F
  0
LAYER
  5
35
330
2
100
AcDbSymbolTableRecord
100
AcDbLayerTableRecord
  2
7
 70
     0
 62
     7
  6
Continuous
370
    -3
390
F
  0
LAYER
  5
36
330
2
100
AcDbSymbolTableRecord
100
AcDbLayerTableRecord
  2
cen
 70
     0
 62
     7
  6
DASHDOT
370
    -3
390
F
  0
LAYER
  5
37
330
2
100
AcDbSymbolTableRecord
100
AcDbLayerTableRecord
  2
hid
 70
     0
 62
     7
  6
HIDDEN
370
    -3
390
F
  0
LAYER
  5
5D6
330
2
100
AcDbSymbolTableRecord
100
AcDbLayerTableRecord
  2
hatch
 70
     0
 62
     9
  6
Continuous
370
    -3
390
F
  0
LAYER
  5
8AF
330
2
100
AcDbSymbolTableRecord
100
AcDbLayerTableRecord
  2
9
 70
     0
 62
     9
  6
Continuous
370
    -3
390
F
  0
LAYER
  5
8F8
330
2
100
AcDbSymbolTableRecord
100
AcDbLayerTableRecord
  2
leg fin
 70
     0
 62
     9
  6
Continuous
370
    -3
390
F
  0
LAYER
  5
91D
330
2
100
AcDbSymbolTableRecord
100
AcDbLayerTableRecord
  2
cotas
 70
     0
 62
     1
  6
Continuous
370
    -3
390
F
  0
LAYER
  5
92F
330
2
100
AcDbSymbolTableRecord
100
AcDbLayerTableRecord
  2
Defpoints
 70
     0
 62
     7
  6
Continuous
290
     0
370
    -3
390
F
  0
LAYER
  5
B5B
330
2
100
AcDbSymbolTableRecord
100
AcDbLayerTableRecord
  2
indusa
 70
     0
 62
    -3
  6
Continuous
370
    -3
390
F
  0
LAYER
  5
1534
330
2
100
AcDbSymbolTableRecord
100
AcDbLayerTableRecord
  2
SANINDUSA
 70
     0
 62
     3
  6
Continuous
370
    -3
390
F
  0
ENDTAB
  0
TABLE
  2
STYLE
  5
3
330
0
100
AcDbSymbolTable
 70
     4
  0
STYLE
  5
11
330
3
100
AcDbSymbolTableRecord
100
AcDbTextStyleTableRecord
  2
Standard
 70
     0
 40
0.0
 41
1.0
 50
0.0
 71
     0
 42
2.5
  3
Avgardn.ttf
  4

1001
ACAD
1000
AvantGarde Bk BT
1071
       34
  0
STYLE
  5
2C
330
3
100
AcDbSymbolTableRecord
100
AcDbTextStyleTableRecord
  2

 70
     1
 40
0.0
 41
1.0
 50
0.0
 71
     0
 42
2.5
  3
ltypeshp.shx
  4

  0
STYLE
  5
91F
330
3
100
AcDbSymbolTableRecord
100
AcDbTextStyleTableRecord
  2
SANINDUSA
 70
     0
 40
0.0
 41
1.0
 50
0.0
 71
     0
 42
2.5
  3
verdana.TTF
  4

1001
ACAD
1000
Verdana
1071
       34
  0
STYLE
  5
1535
330
3
100
AcDbSymbolTableRecord
100
AcDbTextStyleTableRecord
  2
COTAS
 70
     0
 40
2.0
 41
0.8
 50
0.0
 71
     0
 42
6.349999999999999
  3
ISOCP.shx
  4

  0
ENDTAB
  0
TABLE
  2
VIEW
  5
6
330
0
100
AcDbSymbolTable
 70
     0
  0
ENDTAB
  0
TABLE
  2
UCS
  5
7
330
0
100
AcDbSymbolTable
 70
     0
  0
ENDTAB
  0
TABLE
  2
APPID
  5
9
330
0
100
AcDbSymbolTable
 70
     2
  0
APPID
  5
12
330
9
100
AcDbSymbolTableRecord
100
AcDbRegAppTableRecord
  2
ACAD
 70
     0
  0
APPID
  5
3A
330
9
100
AcDbSymbolTableRecord
100
AcDbRegAppTableRecord
  2
DCO15
 70
     0
  0
ENDTAB
  0
TABLE
  2
DIMSTYLE
  5
A
330
0
100
AcDbSymbolTable
 70
     2
100
AcDbDimStyleTable
 71
     1
340
921
  0
DIMSTYLE
105
45
330
A
100
AcDbSymbolTableRecord
100
AcDbDimStyleTableRecord
  2
STANDARD
 70
     0
289
     0
340
11
  0
DIMSTYLE
105
921
330
A
100
AcDbSymbolTableRecord
100
AcDbDimStyleTableRecord
  2
SANINDUSA
 70
     0
 41
2.0
 42
1.0
 43
1.0
 44
1.0
 73
     0
 74
     0
 77
     1
 78
     8
140
2.0
141
0.0
143
0.03937007874016
147
1.0
171
     3
172
     1
176
   256
177
   256
178
   256
179
     1
271
     1
272
     1
274
     3
278
    44
283
     0
284
     8
340
91F
371
    -1
372
    -1
  0
ENDTAB
  0
TABLE
  2
BLOCK_RECORD
  5
1
330
0
100
AcDbSymbolTable
 70
     8
  0
BLOCK_RECORD
  5
1F
330
1
100
AcDbSymbolTableRecord
100
AcDbBlockTableRecord
  2
*Model_Space
340
22
  0
BLOCK_RECORD
  5
1B
330
1
100
AcDbSymbolTableRecord
100
AcDbBlockTableRecord
  2
*Paper_Space
340
1E
  0
BLOCK_RECORD
  5
23
330
1
100
AcDbSymbolTableRecord
100
AcDbBlockTableRecord
  2
*Paper_Space0
340
26
  0
BLOCK_RECORD
  5
919
330
1
100
AcDbSymbolTableRecord
100
AcDbBlockTableRecord
  2
_DotSmall
340
0
  0
BLOCK_RECORD
  5
922
330
1
100
AcDbSymbolTableRecord
100
AcDbBlockTableRecord
  2
base para cotas
340
0
310
2800000020000000200000000100080000000000000400000000000000000000000000000000000000000000000080000080000000808000800000008000800080800000C0C0C000C0DCC000F0CAA6000020400000206000002080000020A0000020C0000020E00000400000004020000040400000406000004080000040A0
310
000040C0000040E00000600000006020000060400000606000006080000060A0000060C0000060E00000800000008020000080400000806000008080000080A0000080C0000080E00000A0000000A0200000A0400000A0600000A0800000A0A00000A0C00000A0E00000C0000000C0200000C0400000C0600000C0800000C0
310
A00000C0C00000C0E00000E0000000E0200000E0400000E0600000E0800000E0A00000E0C00000E0E00040000000400020004000400040006000400080004000A0004000C0004000E00040200000402020004020400040206000402080004020A0004020C0004020E000404000004040200040404000404060004040800040
310
40A0004040C0004040E00040600000406020004060400040606000406080004060A0004060C0004060E00040800000408020004080400040806000408080004080A0004080C0004080E00040A0000040A0200040A0400040A0600040A0800040A0A00040A0C00040A0E00040C0000040C0200040C0400040C0600040C08000
310
40C0A00040C0C00040C0E00040E0000040E0200040E0400040E0600040E0800040E0A00040E0C00040E0E00080000000800020008000400080006000800080008000A0008000C0008000E00080200000802020008020400080206000802080008020A0008020C0008020E00080400000804020008040400080406000804080
310
008040A0008040C0008040E00080600000806020008060400080606000806080008060A0008060C0008060E00080800000808020008080400080806000808080008080A0008080C0008080E00080A0000080A0200080A0400080A0600080A0800080A0A00080A0C00080A0E00080C0000080C0200080C0400080C0600080C0
310
800080C0A00080C0C00080C0E00080E0000080E0200080E0400080E0600080E0800080E0A00080E0C00080E0E000C0000000C0002000C0004000C0006000C0008000C000A000C000C000C000E000C0200000C0202000C0204000C0206000C0208000C020A000C020C000C020E000C0400000C0402000C0404000C0406000C0
310
408000C040A000C040C000C040E000C0600000C0602000C0604000C0606000C0608000C060A000C060C000C060E000C0800000C0802000C0804000C0806000C0808000C080A000C080C000C080E000C0A00000C0A02000C0A04000C0A06000C0A08000C0A0A000C0A0C000C0A0E000C0C00000C0C02000C0C04000C0C06000
310
C0C08000C0C0A000F0FBFF00A4A0A000808080000000FF0000FF000000FFFF00FF000000FF00FF00FFFF0000FFFFFF00A4A4A4A4A4A4A4A4A4A4A4A4A4A4A4A4A4A4A4A4A4A4A4A4A4A4A4A4A4A4A4A4A4A4A4A4A4A4A4A4A4A4A4A4A4A4A4A4A4A4A4A4A4A4A4A4A4A4A4A4A4A4A4A4A4A4A4A4A4A4A4A4A4A4A4A4A4A4A4
310
A4A4A4A4A4A4A4A4A4A4A4A4A4A4A4A4A4A4A4A4A4A4A4A4A4A4A4A4A4A4A4A4A4A4A4A4A4A4A4A4A4A4A4A4A4A4A4A4A4A4A4A4A4A4A4A4A4A4A4A4A4A4A4A4A4A4A4A4A4A4A4A4A4A4A4A4A4A4A4A4A4A4A4A4A4A4A4A4A4A4A4A4A4A4A4A4A4A4A4A4A4A4A4A4A4A4A4A4A4A4A4A4A4A4A4A4A4A4A4A4A4A4A4A4A4A4A4
310
A4A4A4A4A4A4A4A4A4A4A4A4A4A4A4A4A4A4A4A4A4A4A4A4A4A4A4A4A4A4A4A4A4A4A4A4A4A4A4A4A4A4A4A4A4A4A4A4A4A4A4A4A4A4A4A4A4A4A4A4A4A4A4A4A4A4A4A4A4A4A4A4A4A4A4A4A4A4A4A4A4A4A4A4A4A4A4A4A4A4A4A4A4A4A4A4A4A4A4A4A4A4A4A4A4A4A4A4A4A4A4A4A4A4A4A4A4A4A4A4A4A4A4A4A4A4A4
310
A4A4A4A4A4A4A4A4A4A4A4A4A4A4A4A4A4A4A4A4A4A4A4A4A4A4A4A4A4A4A4A4A4A4A4A4A4A4A4A4A4A4A4A4A4A4A4A4A4A4A4A4A4A4A4A4A4A4A4A4A4A4A4A4A4A4A4A4A4A4A4A4A4A4A4A4A4A4A4A4A4A4A4A4A4A4A4A4A4A4A4A4A4A4A4A4A4A4A4A4A4A4A4A4A4A4A4A4A4A4A4A4A4A4A4A4F9F9F9F9F9F9F9F9F9F9F9
310
F9F9F9F9F9F9F9F9F9F9F9F9F9F9F9F9F9F9F9A4A4F9F9F9F9F9F9F9F9F9F9F9F9F9F9F9F9F9F9F9F9F9F9F9F9F9F9F9F9F9F9A4A4F9F9F9F9F9F9F9F9F9F9F9F9F9F9F9F9F9F9F9F9F9F9F9F9F9F9F9F9F9F9A4A4F9A4A4A4A4A4A4A4A4A4A4A4A4A4A4A4A4A4A4A4A4A4A4A4A4A4A4A4A4F9A4A4A4A4A4A4A4A4A4A4A4A4
310
A4A4A4A4A4A4A4A4A4A4A4A4A4A4A4A4A4A4A4A4A4A4A4A4A4A4A4A4A4A4A4A4A4A4A4A4A4A4A4A4A4A4A4A4A4A4A4A4A4A4A4A4A4A4A4A4A4A4A4A4A4A4A4A4A4A4A4A4A4A4A4A4A4A4A4A4A4A4A4A4A4A4A4A4A4A4A4A4A4A4A4A4A4A4A4A4A4A4A4A4A4A4A4A4A4A4A4A4A4A4A4A4A4A4A4A4A4A4A4A4A4A4A4A4A4A4A4
310
A4A4A4A4A4A4A4A4A4A4A4A4A4A4A4A4A4A4A4A4A4A4A4A4A4A4A4A4A4A4A4A4A4A4A4A4A4A4A4A4A4A4A4A4A4A4A4A4A4A4A4A4A4A4A4A4A4A4A4A4A4A4A4A4A4A4A4A4A4A4A4A4A4A4A4A4A4A4A4A4A4A4A4A4A4A4A4A4A4A4A4A4A4A4A4A4A4A4A4A4A4A4A4A4A4A4A4A4A4A4A4A4A4A4A4A4A4A4A4A4A4A4A4A4A4A4A4
310
A4A4A4A4A4A4A4A4A4A4A4A4A4A4A4A4A4A4A4A4A4A4A4A4A4A4A4A4A4A4A4A4A4A4A4A4A4A4A4A4A4A4A4A4A4A4A4A4A4A4A4A4A4A4A4A4A4A4A4A4A4A4A4A4A4A4A4A4A4A4A4A4A4A4A4A4A4A4A4A4A4A4A4A4A4A4A4A4A4A4A4A4A4A4A4A4A4A4A4A4A4A4A4A4A4A4A4A4A4A4A4A4A4A4A4A4A4A4A4A4A4A4A4A4A4A4A4
310
A4A4A4A4A4A4A4A4A4A4A4A4A4A4A4A4A4A4A4A4A4A4A4A4A4A4A4A4A4A4A4A4A4A4A4A4A4A4A4A4A4A4A4A4A4A4A4A4A4A4A4A4A4A4A4A4
1001
ACAD
1000
DesignCenter Data
1002
{
1070
     1
1070
     4
1002
}
  0
BLOCK_RECORD
  5
AA8
330
1
100
AcDbSymbolTableRecord
100
AcDbBlockTableRecord
  2
_CLOSED
340
0
  0
BLOCK_RECORD
  5
1536
330
1
100
AcDbSymbolTableRecord
100
AcDbBlockTableRecord
  2
110450PL
340
0
102
{BLKREFS
331
1571
102
}
  0
BLOCK_RECORD
  5
1572
330
1
100
AcDbSymbolTableRecord
100
AcDbBlockTableRecord
  2
110450AL
340
0
102
{BLKREFS
331
15A9
102
}
  0
BLOCK_RECORD
  5
15AA
330
1
100
AcDbSymbolTableRecord
100
AcDbBlockTableRecord
  2
110450AF
340
0
102
{BLKREFS
331
15D3
102
}
  0
BLOCK_RECORD
  5
15D4
330
1
100
AcDbSymbolTableRecord
100
AcDbBlockTableRecord
  2
110450CT
340
0
102
{BLKREFS
331
1660
102
}
  0
ENDTAB
  0
ENDSEC
  0
SECTION
  2
BLOCKS
  0
BLOCK
  5
20
330
1F
100
AcDbEntity
  8
0
100
AcDbBlockBegin
  2
*Model_Space
 70
     0
 10
0.0
 20
0.0
 30
0.0
  3
*Model_Space
  1

  0
ENDBLK
  5
21
330
1F
100
AcDbEntity
  8
0
100
AcDbBlockEnd
  0
BLOCK
  5
1C
330
1B
100
AcDbEntity
 67
     1
  8
0
100
AcDbBlockBegin
  2
*Paper_Space
 70
     0
 10
0.0
 20
0.0
 30
0.0
  3
*Paper_Space
  1

  0
ENDBLK
  5
1D
330
1B
100
AcDbEntity
 67
     1
  8
0
100
AcDbBlockEnd
  0
BLOCK
  5
24
330
23
100
AcDbEntity
 67
     1
  8
0
100
AcDbBlockBegin
  2
*Paper_Space0
 70
     0
 10
0.0
 20
0.0
 30
0.0
  3
*Paper_Space0
  1

  0
ENDBLK
  5
25
330
23
100
AcDbEntity
 67
     1
  8
0
100
AcDbBlockEnd
  0
BLOCK
  5
91B
330
919
100
AcDbEntity
  8
0
100
AcDbBlockBegin
  2
_DotSmall
 70
     0
 10
0.0
 20
0.0
 30
0.0
  3
_DotSmall
  1

  0
LWPOLYLINE
  5
91A
330
919
100
AcDbEntity
  8
0
  6
ByBlock
 62
     0
100
AcDbPolyline
 90
        2
 70
     1
 43
0.5
 10
-0.0625
 20
0.0
 42
1.0
 10
0.0625
 20
0.0
 42
1.0
  0
ENDBLK
  5
91C
330
919
100
AcDbEntity
  8
0
100
AcDbBlockEnd
  0
BLOCK
  5
92A
330
922
100
AcDbEntity
  8
0
100
AcDbBlockBegin
  2
base para cotas
 70
     0
 10
0.0
 20
0.0
 30
0.0
  3
base para cotas
  1

  0
LINE
  5
B36
330
922
100
AcDbEntity
  8
cotas
100
AcDbLine
 10
0.0
 20
-30.0
 30
0.0
 11
327.1260136525398
 21
-30.0
 31
0.0
  0
LINE
  5
B37
330
922
100
AcDbEntity
  8
cotas
100
AcDbLine
 10
0.0
 20
-25.0
 30
0.0
 11
327.1260136525398
 21
-25.0
 31
0.0
  0
LINE
  5
B38
330
922
100
AcDbEntity
  8
cotas
100
AcDbLine
 10
0.0
 20
-20.0
 30
0.0
 11
327.1260136525398
 21
-20.0
 31
0.0
  0
LINE
  5
B39
330
922
100
AcDbEntity
  8
cotas
100
AcDbLine
 10
0.0
 20
-15.0
 30
0.0
 11
327.1260136525398
 21
-15.0
 31
0.0
  0
LINE
  5
B3A
330
922
100
AcDbEntity
  8
cotas
100
AcDbLine
 10
0.0
 20
-10.0
 30
0.0
 11
327.1260136525398
 21
-10.0
 31
0.0
  0
LINE
  5
B3B
330
922
100
AcDbEntity
  8
cotas
100
AcDbLine
 10
0.0
 20
0.0
 30
0.0
 11
0.0
 21
-30.0
 31
0.0
  0
LINE
  5
B3C
330
922
100
AcDbEntity
  8
cotas
100
AcDbLine
 10
327.1260136525398
 20
-30.0
 30
0.0
 11
327.1260136525398
 21
0.0
 31
0.0
  0
ENDBLK
  5
92B
330
922
100
AcDbEntity
  8
0
100
AcDbBlockEnd
  0
BLOCK
  5
AAD
330
AA8
100
AcDbEntity
  8
0
100
AcDbBlockBegin
  2
_CLOSED
 70
     0
 10
0.0
 20
0.0
 30
0.0
  3
_CLOSED
  1

  0
LINE
  5
AA9
330
AA8
100
AcDbEntity
  8
0
100
AcDbLine
 10
-1.0
 20
0.166667
 30
0.0
 11
0.0
 21
0.0
 31
0.0
  0
LINE
  5
AAA
330
AA8
100
AcDbEntity
  8
0
100
AcDbLine
 10
0.0
 20
0.0
 30
0.0
 11
-1.0
 21
-0.166667
 31
0.0
  0
LINE
  5
AAB
330
AA8
100
AcDbEntity
  8
0
100
AcDbLine
 10
-1.0
 20
0.166667
 30
0.0
 11
-1.0
 21
-0.166667
 31
0.0
  0
LINE
  5
AAC
330
AA8
100
AcDbEntity
  8
0
100
AcDbLine
 10
0.0
 20
0.0
 30
0.0
 11
-1.0
 21
0.0
 31
0.0
  0
ENDBLK
  5
AAE
330
AA8
100
AcDbEntity
  8
0
100
AcDbBlockEnd
  0
BLOCK
  5
156E
330
1536
100
AcDbEntity
  8
0
100
AcDbBlockBegin
  2
110450PL
 70
     0
 10
0.0
 20
0.0
 30
0.0
  3
110450PL
  1

  0
LINE
  5
1537
330
1536
100
AcDbEntity
  8
SANINDUSA
100
AcDbLine
 10
0.1193678438850281
 20
-0.0000000000000011
 30
0.0
 11
0.1244674455735651
 21
-0.0000000000000011
 31
0.0
  0
LWPOLYLINE
  5
1538
330
1536
100
AcDbEntity
  8
SANINDUSA
100
AcDbPolyline
 90
        9
 70
   128
 43
0.0
 10
0.0926321693696525
 20
-0.017885302932001
 10
0.091645758483653
 20
-0.0155844027750004
 10
0.0903117472436532
 20
-0.0134653555960006
 10
0.0886789679836522
 20
-0.0115954261570005
 10
0.0867620010146527
 20
-0.0099892222310007
 10
0.0846340634816523
 20
-0.0087077136840003
 10
0.0823208157036527
 20
-0.007764875685001
 10
0.0798999499896525
 20
-0.0071927533470011
 10
0.0774145260986529
 20
-0.0070000000000005
  0
ARC
  5
1539
330
1536
100
AcDbEntity
  8
SANINDUSA
100
AcDbCircle
 10
-0.0801537489059763
 20
-0.2534681091374375
 30
0.0
 40
0.2272466245973115
100
AcDbArc
 50
20.21964362910978
 51
25.02670190865296
  0
LINE
  5
153A
330
1536
100
AcDbEntity
  8
SANINDUSA
100
AcDbLine
 10
0.1141442358766528
 20
-0.1217092635679978
 30
0.0
 11
0.1172530392166527
 21
-0.1320373222870103
 31
0.0
  0
LINE
  5
153B
330
1536
100
AcDbEntity
  8
SANINDUSA
100
AcDbLine
 10
0.1127640317476528
 20
-0.1176263521370083
 30
0.0
 11
0.1141442358868096
 21
-0.1217092635981817
 31
0.0
  0
LINE
  5
153C
330
1536
100
AcDbEntity
  8
SANINDUSA
100
AcDbLine
 10
0.112293647579653
 20
-0.1162329047800017
 30
0.0
 11
0.1127640317476528
 21
-0.1176263521370083
 31
0.0
  0
LWPOLYLINE
  5
153D
330
1536
100
AcDbEntity
  8
SANINDUSA
100
AcDbPolyline
 90
        5
 70
   128
 43
0.0
 10
0.0774145260986529
 20
-0.0195768879770003
 10
0.0784493596886523
 20
-0.0197364936869985
 10
0.0793874174566531
 20
-0.0202018856539996
 10
0.0801376485306526
 20
-0.0209321816919987
 10
0.0806234343666529
 20
-0.0218598305440003
  0
LWPOLYLINE
  5
153E
330
1536
100
AcDbEntity
  8
SANINDUSA
100
AcDbPolyline
 90
        7
 70
   128
 43
0.0
 10
0.1172530391421333
 20
-0.1320373222187902
 10
0.1104302138413198
 20
-0.1263669976813208
 10
0.1029655677298194
 20
-0.1216119856764226
 10
0.0949851603095078
 20
-0.1178376466659461
 10
0.086535803301789
 20
-0.1150724514879744
 10
0.0778561919871038
 20
-0.1133995372060201
 10
0.0690080406076561
 20
-0.1128340092240035
  0
LINE
  5
153F
330
1536
100
AcDbEntity
  8
SANINDUSA
100
AcDbLine
 10
0.0806234343398001
 20
-0.0218598304636589
 30
0.0
 11
0.1122936475786525
 21
-0.1162329047770026
 31
0.0
  0
LWPOLYLINE
  5
1540
330
1536
100
AcDbEntity
  8
SANINDUSA
100
AcDbPolyline
 90
       14
 70
   128
 43
0.0
 10
0.0818298621226518
 20
-0.1508501807200002
 10
0.0811365915382192
 20
-0.1472247089624568
 10
0.0804763725046303
 20
-0.1450698275200079
 10
0.0796727353136521
 20
-0.1430474670110004
 10
0.0782485891628392
 20
-0.1402786770629382
 10
0.0765947363881515
 20
-0.1377907006595001
 10
0.0740681304738928
 20
-0.1348399719225745
 10
0.0712519909065964
 20
-0.1323103223748342
 10
0.0684770250851523
 20
-0.1303755106185008
 10
0.0655836066754603
 20
-0.1287704096527352
 10
0.0625387635952689
 20
-0.1274455123473581
 10
0.0593169230316517
 20
-0.1263837533560002
 10
0.0546599566545274
 20
-0.1253835129533752
 10
0.0496990052506521
 20
-0.1250054042760007
  0
LINE
  5
1541
330
1536
100
AcDbEntity
  8
SANINDUSA
100
AcDbLine
 10
0.1264664686457661
 20
-0.1177861020532498
 30
0.0
 11
0.1245604749019446
 21
-0.112172937728975
 31
0.0
  0
LWPOLYLINE
  5
1542
330
1536
100
AcDbEntity
  8
SANINDUSA
100
AcDbPolyline
 90
       12
 70
   128
 43
0.0
 10
0.069010023575737
 20
-0.120681734477298
 10
0.0760989611669686
 20
-0.1210876395888886
 10
0.0830684793441037
 20
-0.1222934784341453
 10
0.0899105017421027
 20
-0.1242960831910079
 10
0.0964542129930806
 20
-0.1270470721588879
 10
0.1026252052228312
 20
-0.1305059050204284
 10
0.1084102114575398
 20
-0.1346751712860203
 10
0.1136507610556066
 20
-0.1394496909751956
 10
0.118294412846609
 20
-0.144773767756734
 10
0.1223255112107427
 20
-0.1506461748500237
 10
0.1251497430500831
 20
-0.1558847192691508
 10
0.1257568567262797
 20
-0.1573335634266005
  0
LINE
  5
1543
330
1536
100
AcDbEntity
  8
SANINDUSA
100
AcDbLine
 10
0.1245604751423093
 20
-0.1121729384391938
 30
0.0
 11
0.0926321693696525
 21
-0.017885302932001
 31
0.0
  0
LWPOLYLINE
  5
1544
330
1536
100
AcDbEntity
  8
SANINDUSA
100
AcDbPolyline
 90
        3
 70
   128
 43
0.0
 10
0.1540203136072637
 20
-0.1121906592734672
 10
0.1407319943244295
 20
-0.0608518785343165
 10
0.1244730366012675
 20
0.0000015348887473
  0
LWPOLYLINE
  5
1545
330
1536
100
AcDbEntity
  8
SANINDUSA
100
AcDbPolyline
 90
        9
 70
   128
 43
0.0
 10
-0.0928845162943469
 20
-0.0178853029319998
 10
-0.0918981054083474
 20
-0.0155844027750004
 10
-0.0905640941683476
 20
-0.0134653555960006
 10
-0.0889313149083466
 20
-0.0115954261570005
 10
-0.0870143479393471
 20
-0.0099892222310007
 10
-0.0848864104063466
 20
-0.0087077136840003
 10
-0.0825731626283471
 20
-0.0077648756849999
 10
-0.0801522969143469
 20
-0.007192753347
 10
-0.0776668730233473
 20
-0.0070000000000005
  0
LINE
  5
1546
330
1536
100
AcDbEntity
  8
SANINDUSA
100
AcDbLine
 10
-0.0776668730113033
 20
-0.006999999807058
 30
0.0
 11
-0.0001261734623472
 21
-0.0069999998291416
 31
0.0
  0
LINE
  5
1547
330
1536
100
AcDbEntity
  8
SANINDUSA
100
AcDbLine
 10
-0.1196201908097225
 20
0.0
 30
0.0
 11
-0.1247198122529824
 21
0.0
 31
0.0
  0
LWPOLYLINE
  5
1548
330
1536
100
AcDbEntity
  8
SANINDUSA
100
AcDbPolyline
 90
       40
 70
   128
 43
0.0
 10
-0.000126173476134
 20
-0.1222787846789401
 10
0.0020794816356602
 20
-0.1222725705121752
 10
0.0042280114386369
 20
-0.1222540889550305
 10
0.0062637701394681
 20
-0.1222238186701259
 10
0.0081340326571387
 20
-0.1221825436419419
 10
0.0097903601748442
 20
-0.1221313328720271
 10
0.0111898546799046
 20
-0.1220715126924222
 10
0.0122962699997595
 20
-0.1220046324143573
 10
0.0130809505587979
 20
-0.1219324242019036
 10
0.0135235735427148
 20
-0.1218567582098342
 10
0.0136126752487258
 20
-0.1217795941475992
 10
0.0133459479894475
 20
-0.1217029305238771
 10
0.01273029986079
 20
-0.1216287528862517
 10
0.0117816758259028
 20
-0.1215589823965763
 10
0.0105246447489969
 20
-0.121495426073883
 10
0.0089917630746766
 20
-0.1214397299935456
 10
0.0072227316331237
 20
-0.1213933366547883
 10
0.005263367409442
 20
-0.1213574476207168
 10
0.0031644169078197
 20
-0.1213329923984611
 10
0.0009802418437209
 20
-0.1213206043654316
 10
-0.0012325887959889
 20
-0.1213206043651769
 10
-0.0034167638600877
 20
-0.1213329923977051
 10
-0.00551571436171
 20
-0.1213574476194776
 10
-0.0074750785853905
 20
-0.1213933366531001
 10
-0.0092441100269446
 20
-0.1214397299914503
 10
-0.0107769917012638
 20
-0.1214954260714353
 10
-0.0120340227781696
 20
-0.1215589823938399
 10
-0.012982646813058
 20
-0.1216287528832981
 10
-0.0135982949417155
 20
-0.1217029305207814
 10
-0.0138650222009926
 20
-0.1217795941444422
 10
-0.0137759204949816
 20
-0.1218567582066976
 10
-0.0133332975110648
 20
-0.1219324241988693
 10
-0.0125486169520264
 20
-0.1220046324115026
 10
-0.0114422016321714
 20
-0.1220715126898222
 10
-0.0100427071271111
 20
-0.1221313328697477
 10
-0.0083863796094056
 20
-0.1221825436400434
 10
-0.0065161170917361
 20
-0.122223818668657
 10
-0.0044803583909038
 20
-0.1222540889540301
 10
-0.0023318285879282
 20
-0.1222725705116681
 10
-0.000126173476134
 20
-0.1222787846789401
  0
LWPOLYLINE
  5
1549
330
1536
100
AcDbEntity
  8
SANINDUSA
100
AcDbPolyline
 90
       45
 70
   128
 43
0.0
 10
-0.0001261734623472
 20
-0.0733293414660886
 10
0.0023643362074347
 20
-0.0731512469367226
 10
0.0048041462823778
 20
-0.0726205888396612
 10
0.0071435892651857
 20
-0.0717481698434677
 10
0.0093350408431263
 20
-0.070551749883058
 10
0.0113338893816956
 20
-0.0690556846186337
 10
0.0130994440888515
 20
-0.0672904296246827
 10
0.0145957633621981
 20
-0.0652919204023078
 10
0.0157923864563566
 20
-0.0631008408360515
 10
0.0166649535759064
 20
-0.0607617949873316
 10
0.0171957017705688
 20
-0.058322399084376
 10
0.0173738265376528
 20
-0.0558323121931324
 10
0.0171957017705688
 20
-0.0533422253018887
 10
0.0166649535759064
 20
-0.050902829398932
 10
0.0157923864563566
 20
-0.0485637835502121
 10
0.0145957633621981
 20
-0.0463727039839557
 10
0.0130994440888515
 20
-0.0443741947615809
 10
0.0113338893816956
 20
-0.042608939767631
 10
0.0093350408431263
 20
-0.0411128745032068
 10
0.0071435892651857
 20
-0.0399164545427959
 10
0.0048041462823778
 20
-0.0390440355466024
 10
0.0023643362074347
 20
-0.038513377449541
 10
-0.0001261734623472
 20
-0.0383352829201749
 10
-0.0026166831321302
 20
-0.038513377449541
 10
-0.0050564932070722
 20
-0.0390440355466024
 10
-0.0073959361898801
 20
-0.0399164545427959
 10
-0.0095873877678207
 20
-0.0411128745032068
 10
-0.01158623630639
 20
-0.042608939767631
 10
-0.013351791013547
 20
-0.0443741947615809
 10
-0.0148481102868925
 20
-0.0463727039839557
 10
-0.016044733381051
 20
-0.0485637835502121
 10
-0.0169173005006007
 20
-0.0509028293989331
 10
-0.0174480486952632
 20
-0.0533422253018887
 10
-0.0176261734623472
 20
-0.0558323121931324
 10
-0.0174480486952632
 20
-0.058322399084376
 10
-0.0169173005006007
 20
-0.0607617949873316
 10
-0.016044733381051
 20
-0.0631008408360515
 10
-0.0148481102868925
 20
-0.0652919204023078
 10
-0.013351791013547
 20
-0.0672904296246827
 10
-0.01158623630639
 20
-0.0690556846186337
 10
-0.0095873877678207
 20
-0.070551749883058
 10
-0.0073959361898801
 20
-0.0717481698434677
 10
-0.0050564932070722
 20
-0.0726205888396612
 10
-0.0026166831321291
 20
-0.0731512469367226
 10
-0.0001261734623472
 20
-0.0733293414660886
  0
LWPOLYLINE
  5
154A
330
1536
100
AcDbEntity
  8
SANINDUSA
100
AcDbPolyline
 90
       50
 70
   128
 43
0.0
 10
-0.000126224643443
 20
-0.1578110927143086
 10
-0.0018494930599093
 20
-0.1578757451135573
 10
-0.0036046112980739
 20
-0.1580756474750888
 10
-0.0053801243537964
 20
-0.1584192191876741
 10
-0.0071631674577509
 20
-0.1589140446139106
 10
-0.0089394845692323
 20
-0.1595666688027097
 10
-0.0102625603718434
 20
-0.1601651812443993
 10
-0.0116987229834592
 20
-0.160934571449668
 10
-0.0132228832003159
 20
-0.1619040518553697
 10
-0.0148031406586438
 20
-0.1631027152075785
 10
-0.0163999644534727
 20
-0.164557978342624
 10
-0.0178773267323709
 20
-0.1661858898922685
 10
-0.0190358905065114
 20
-0.1677182472897585
 10
-0.0199226711177767
 20
-0.1691021781369466
 10
-0.0205829664065289
 20
-0.1702982613906295
 10
-0.0210575558207756
 20
-0.1712781376338307
 10
-0.021380722338364
 20
-0.1720222274816365
 10
-0.0223724625279749
 20
-0.174971347616339
 10
-0.0229441377304909
 20
-0.1779230991793247
 10
-0.0231261720466557
 20
-0.1808191625241216
 10
-0.0227699009657738
 20
-0.184843660723675
 10
-0.0216054768871243
 20
-0.1890354178772293
 10
-0.0195065760354942
 20
-0.1931965679212351
 10
-0.0180792096245477
 20
-0.1951877575764081
 10
-0.017268574729751
 20
-0.1961453054031165
 10
-0.0168389573140803
 20
-0.1966124488562184
 10
-0.0166180833449607
 20
-0.1968428396067088
 10
-0.0165061324178362
 20
-0.1969572050827617
 10
-0.0164497788394658
 20
-0.1970141759854118
 10
-0.0164215075726338
 20
-0.1970426079310812
 10
-0.0164073483264838
 20
-0.1970568104590439
 10
-0.0164002628010781
 20
-0.1970639083532433
 10
-0.0163967185629008
 20
-0.1970674564568264
 10
-0.0163949460749575
 20
-0.1970692302976045
 10
-0.0163940597387728
 20
-0.197070117165224
 10
-0.0163936165476287
 20
-0.1970705605858393
 10
-0.0163933949462921
 20
-0.1970707822928477
 10
-0.016393284144184
 20
-0.1970708931455272
 10
-0.016393228742769
 20
-0.1970709485716611
 10
-0.0163932010419717
 20
-0.1970709762846764
 10
-0.0163931871915509
 20
-0.1970709901411715
 10
-0.0163931733411153
 20
-0.1970710039976575
 10
-0.0162947627420431
 20
-0.1971688652002763
 10
-0.0154131506470788
 20
-0.1979956301986738
 10
-0.014287376312144
 20
-0.198934567376881
 10
-0.0126645482274296
 20
-0.2000929276438001
 10
-0.010478532630126
 20
-0.2013495605164349
 10
-0.0076710910245811
 20
-0.2025383617322189
 10
-0.0042123334406938
 20
-0.2034452106920162
 10
-0.0001265915825184
 20
-0.2038110927104515
  0
LWPOLYLINE
  5
154B
330
1536
100
AcDbEntity
  8
SANINDUSA
100
AcDbPolyline
 90
       22
 70
   128
 43
0.0
 10
-0.0001261734623483
 20
-0.216031579560123
 10
-0.0047269996013631
 20
-0.2157273905597833
 10
-0.0092257739690615
 20
-0.2148266959815953
 10
-0.0136017191074211
 20
-0.2133309658993028
 10
-0.0177177425028731
 20
-0.211285772311785
 10
-0.0215398054280456
 20
-0.2087131003967443
 10
-0.0250070707131124
 20
-0.205647962192229
 10
-0.0293646312131875
 20
-0.2002900563759465
 10
-0.0326086372136854
 20
-0.1941555680841725
 10
-0.034596687341442
 20
-0.1874998949363999
 10
-0.0352545242611609
 20
-0.1805980607298727
 10
-0.034941770832786
 20
-0.1759575749932617
 10
-0.0340344867110366
 20
-0.1714091551259651
 10
-0.0325533185008249
 20
-0.1670276521858489
 10
-0.0292915973055472
 20
-0.160876485067289
 10
-0.0249268883968637
 20
-0.1554977058923248
 10
-0.0214696707231042
 20
-0.1524236453516414
 10
-0.017671177487216
 20
-0.1498444669997912
 10
-0.0135455642831141
 20
-0.1477731055013612
 10
-0.0069970460915397
 20
-0.1457456182873057
 10
-0.0035868631242249
 20
-0.1452270423939683
 10
-0.0001261734623483
 20
-0.1450522386396813
  0
LWPOLYLINE
  5
154C
330
1536
100
AcDbEntity
  8
SANINDUSA
100
AcDbPolyline
 90
       38
 70
   128
 43
0.0
 10
-0.0001265915825627
 20
-0.2038110927104515
 10
-0.0001264117523726
 20
-0.2038110927130174
 10
0.0013014501626446
 20
-0.2037667432340117
 10
0.0026658025921904
 20
-0.2036410044466891
 10
0.0039624568984311
 20
-0.2034447645721923
 10
0.0051886867659687
 20
-0.2031885872289081
 10
0.0063428034198557
 20
-0.2028826204841528
 10
0.0074240274482736
 20
-0.2025365263395963
 10
0.010233745124641
 20
-0.2013457484666856
 10
0.0124213335597665
 20
-0.200086986144388
 10
0.0140451757335825
 20
-0.1989266347146168
 10
0.0151715740783868
 20
-0.1979860430833196
 10
0.0158598239690082
 20
-0.1973473524523149
 10
0.0160537172085049
 20
-0.1971576867900603
 10
0.016152250908084
 20
-0.1970595664892289
 10
0.0161522634901144
 20
-0.1970595538839961
 10
0.0161522697790383
 20
-0.1970595475834671
 10
0.01926600575463
 20
-0.1931781208623806
 10
0.0213625704036588
 20
-0.1890107199656052
 10
0.0225226878966248
 20
-0.1848147259569487
 10
0.0228738153811116
 20
-0.1807884387810384
 10
0.022687502908617
 20
-0.177889420172562
 10
0.0221117983546526
 20
-0.1749397547520573
 10
0.0211180989521802
 20
-0.17199741643376
 10
0.0207141367122949
 20
-0.1710806522399128
 10
0.0200822359073811
 20
-0.1698283703402023
 10
0.0191595513833875
 20
-0.1682787019936188
 10
0.0178712678244813
 20
-0.1664900554917915
 10
0.016136512766941
 20
-0.1645468670453897
 10
0.0145430812058987
 20
-0.1630963257816018
 10
0.0129653599059555
 20
-0.1619004672865572
 10
0.0114424048255455
 20
-0.1609322598411461
 10
0.0100058044903096
 20
-0.1601630171921397
 10
0.0086804447244094
 20
-0.1595638934608758
 10
0.0064643697536928
 20
-0.1587755591351094
 10
0.0042407612323723
 20
-0.1582294656388603
 10
0.002036139414123
 20
-0.1579129617201238
 10
-0.0001262246434601
 20
-0.1578110927143086
  0
LWPOLYLINE
  5
154D
330
1536
100
AcDbEntity
  8
SANINDUSA
100
AcDbPolyline
 90
       22
 70
   128
 43
0.0
 10
-0.0001261734623483
 20
-0.1450522386396813
 10
0.0044507243018893
 20
-0.1453585271049042
 10
0.0089270307220909
 20
-0.1462648086225204
 10
0.0132830227291413
 20
-0.1477688073321735
 10
0.0173831249000443
 20
-0.1498235774963507
 10
0.021194857977531
 20
-0.1524063438953374
 10
0.0246573474575678
 20
-0.1554802971557251
 10
0.029020832882087
 20
-0.1608486908365148
 10
0.0322850317297139
 20
-0.1669889878790946
 10
0.034305397218975
 20
-0.1736478354226347
 10
0.0350020393337957
 20
-0.1805501850616656
 10
0.0347157675863366
 20
-0.1851902681062688
 10
0.0338328938539587
 20
-0.189737312401586
 10
0.0323722791960847
 20
-0.1941164110590068
 10
0.0303403940739543
 20
-0.1982936180089541
 10
0.0278022048495836
 20
-0.2021373409594093
 10
0.0247723979679029
 20
-0.2056301182061782
 10
0.019450791080061
 20
-0.2100408364733516
 10
0.0133599885304454
 20
-0.2133265317577775
 10
0.0090129138472059
 20
-0.2148161704372581
 10
0.0045043255278677
 20
-0.215723589493972
 10
-0.0001261734623483
 20
-0.216031579560123
  0
LINE
  5
154E
330
1536
100
AcDbEntity
  8
SANINDUSA
100
AcDbLine
 10
-0.1143965828013472
 20
-0.1217092635679967
 30
0.0
 11
-0.1175053861413482
 21
-0.1320373222870091
 31
0.0
  0
LINE
  5
154F
330
1536
100
AcDbEntity
  8
SANINDUSA
100
AcDbLine
 10
-0.1130163786723472
 20
-0.1176263521370083
 30
0.0
 11
-0.114396582811504
 21
-0.1217092635981805
 31
0.0
  0
LINE
  5
1550
330
1536
100
AcDbEntity
  8
SANINDUSA
100
AcDbLine
 10
-0.1125459945043474
 20
-0.1162329047800006
 30
0.0
 11
-0.1130163786723472
 21
-0.1176263521370083
 31
0.0
  0
LINE
  5
1551
330
1536
100
AcDbEntity
  8
SANINDUSA
100
AcDbLine
 10
-0.0808757812644945
 20
-0.0218598304636589
 30
0.0
 11
-0.1125459945033481
 21
-0.1162329047770015
 31
0.0
  0
LWPOLYLINE
  5
1552
330
1536
100
AcDbEntity
  8
SANINDUSA
100
AcDbPolyline
 90
        7
 70
   128
 43
0.0
 10
-0.1175053860668288
 20
-0.1320373222187902
 10
-0.1106825607660141
 20
-0.1263669976813196
 10
-0.103217914654515
 20
-0.1216119856764215
 10
-0.0952375072342022
 20
-0.1178376466659449
 10
-0.0867881502264834
 20
-0.1150724514879744
 10
-0.0781085389117993
 20
-0.113399537206019
 10
-0.0692603875323516
 20
-0.1128340092240035
  0
LWPOLYLINE
  5
1553
330
1536
100
AcDbEntity
  8
SANINDUSA
100
AcDbPolyline
 90
        5
 70
   128
 43
0.0
 10
-0.0776668730233473
 20
-0.0195768879770003
 10
-0.0787017066133478
 20
-0.0197364936869985
 10
-0.0796397643813475
 20
-0.0202018856539996
 10
-0.080389995455347
 20
-0.0209321816919987
 10
-0.0808757812913473
 20
-0.0218598305439991
  0
LWPOLYLINE
  5
1554
330
1536
100
AcDbEntity
  8
SANINDUSA
100
AcDbPolyline
 90
       14
 70
   128
 43
0.0
 10
-0.0820822090473485
 20
-0.1508501807200002
 10
-0.0813889384629158
 20
-0.1472247089624568
 10
-0.0807287194293258
 20
-0.1450698275200079
 10
-0.0799250822383476
 20
-0.1430474670110004
 10
-0.0785009360875358
 20
-0.1402786770629371
 10
-0.0768470833128481
 20
-0.1377907006595001
 10
-0.0743204773985883
 20
-0.1348399719225745
 10
-0.0715043378312919
 20
-0.1323103223748331
 10
-0.0687293720098478
 20
-0.1303755106184997
 10
-0.0658359536001569
 20
-0.1287704096527352
 10
-0.0627911105199655
 20
-0.1274455123473581
 10
-0.0595692699563483
 20
-0.1263837533560002
 10
-0.0549123035792229
 20
-0.1253835129533752
 10
-0.0499513521753477
 20
-0.1250054042760007
  0
LWPOLYLINE
  5
1555
330
1536
100
AcDbEntity
  8
SANINDUSA
100
AcDbPolyline
 90
        3
 70
   128
 43
0.0
 10
-0.0001261735005039
 20
-0.1250690307445234
 10
-0.0250589939182771
 20
-0.1250531332106118
 10
-0.0499408866273484
 20
-0.1250054310592736
  0
LINE
  5
1556
330
1536
100
AcDbEntity
  8
SANINDUSA
100
AcDbLine
 10
-0.0692603873103474
 20
-0.1206817353560484
 30
0.0
 11
-0.0001261734623472
 21
-0.1206817352917528
 31
0.0
  0
LINE
  5
1557
330
1536
100
AcDbEntity
  8
SANINDUSA
100
AcDbLine
 10
-0.0001261734623472
 20
-0.1128340092446035
 30
0.0
 11
-0.0692603873081066
 21
-0.1128340092231292
 31
0.0
  0
LINE
  5
1558
330
1536
100
AcDbEntity
  8
SANINDUSA
100
AcDbLine
 10
-0.0001261734623472
 20
-0.0195768878773436
 30
0.0
 11
-0.0776668730022891
 21
-0.0195768879770003
 31
0.0
  0
LWPOLYLINE
  5
1559
330
1536
100
AcDbEntity
  8
SANINDUSA
100
AcDbPolyline
 90
       39
 70
   128
 43
0.0
 10
-0.0001261734623483
 20
-0.3802172973040001
 10
-0.0055130956844357
 20
-0.3801021919125992
 10
-0.0105574422377208
 20
-0.3797900088147162
 10
-0.0151727743547269
 20
-0.3793231103438211
 10
-0.0199623589137434
 20
-0.3786502675536804
 10
-0.0244996888746573
 20
-0.3777720408196228
 10
-0.0292786275928825
 20
-0.376585538375499
 10
-0.0333738546863481
 20
-0.375299050545334
 10
-0.0382389006484073
 20
-0.3734416772343576
 10
-0.0423947329389785
 20
-0.3715300813893657
 10
-0.0461938410518928
 20
-0.3695211700992479
 10
-0.0498441073220181
 20
-0.3673431839289969
 10
-0.053244258193015
 20
-0.3650536797166671
 10
-0.059170319711709
 20
-0.3603629695806802
 10
-0.0643272137421798
 20
-0.355545781350312
 10
-0.0691048658999444
 20
-0.3504350452065364
 10
-0.0738455421705851
 20
-0.3446963301602375
 10
-0.0782468246440146
 20
-0.3385437257696674
 10
-0.0813884888843302
 20
-0.3334640339940518
 10
-0.0841403066936471
 20
-0.3283925985345241
 10
-0.0866272296005252
 20
-0.3232064878000585
 10
-0.0892654304566088
 20
-0.3173047066820493
 10
-0.0914624256280888
 20
-0.3114472539683459
 10
-0.093156126348016
 20
-0.3058865284140006
 10
-0.0949751193772443
 20
-0.2980041452223122
 10
-0.0962024536628485
 20
-0.2902607837724998
 10
-0.0970052432325361
 20
-0.2823563506481866
 10
-0.0973804538823481
 20
-0.2742762486459992
 10
-0.0971830900807299
 20
-0.2640753595411434
 10
-0.09642354979738
 20
-0.2547193217696247
 10
-0.0955046474209087
 20
-0.244955627617419
 10
-0.094454671752568
 20
-0.2350531133305606
 10
-0.0932626913529464
 20
-0.225110509742243
 10
-0.09194055636337
 20
-0.2151822908593329
 10
-0.0905565981661698
 20
-0.2053585738473441
 10
-0.0886629281034095
 20
-0.1916813900184638
 10
-0.0865981418537752
 20
-0.1780586926782689
 10
-0.0843967113482336
 20
-0.1644541480395822
 10
-0.0820844071913484
 20
-0.1508627430510001
  0
LINE
  5
155A
330
1536
100
AcDbEntity
  8
SANINDUSA
100
AcDbLine
 10
-0.1267188155704616
 20
-0.1177861020532487
 30
0.0
 11
-0.124812821826639
 21
-0.1121729377289739
 31
0.0
  0
ARC
  5
155B
330
1536
100
AcDbEntity
  8
SANINDUSA
100
AcDbCircle
 10
0.0151579706637119
 20
-0.2258704824326219
 30
0.0
 40
0.1569942169983144
100
AcDbArc
 50
153.6754295593833
 51
161.0652107741614
  0
LWPOLYLINE
  5
155C
330
1536
100
AcDbEntity
  8
SANINDUSA
100
AcDbPolyline
 90
       12
 70
   128
 43
0.0
 10
-0.0692623705004326
 20
-0.1206817344772969
 10
-0.0763513080916653
 20
-0.1210876395888886
 10
-0.0833208262687993
 20
-0.1222934784341453
 10
-0.0901628486667971
 20
-0.1242960831910068
 10
-0.0967065599177761
 20
-0.1270470721588867
 10
-0.1028775521475268
 20
-0.1305059050204272
 10
-0.1086625583822354
 20
-0.1346751712860191
 10
-0.1139031079803033
 20
-0.1394496909751945
 10
-0.1185467597713046
 20
-0.1447737677567329
 10
-0.1225778581354382
 20
-0.1506461748500237
 10
-0.1254020899747786
 20
-0.1558847192691496
 10
-0.1255553719801208
 20
-0.1562505185363852
  0
LINE
  5
155D
330
1536
100
AcDbEntity
  8
SANINDUSA
100
AcDbLine
 10
-0.1248128220670049
 20
-0.1121729384391926
 30
0.0
 11
-0.0928845162943469
 21
-0.0178853029319998
 31
0.0
  0
LWPOLYLINE
  5
155E
330
1536
100
AcDbEntity
  8
SANINDUSA
100
AcDbPolyline
 90
        3
 70
   128
 43
0.0
 10
-0.1247269360856046
 20
0.0000019360428973
 10
-0.1381115272454519
 20
-0.0499359065538522
 10
-0.1542721433912118
 20
-0.1121906463448852
  0
LWPOLYLINE
  5
155F
330
1536
100
AcDbEntity
  8
SANINDUSA
100
AcDbPolyline
 90
        3
 70
   128
 43
0.0
 10
-0.0001261734241928
 20
-0.1250690307445234
 10
0.0248066469935805
 20
-0.1250531332163405
 10
0.0496885397026517
 20
-0.1250054310707196
  0
LINE
  5
1560
330
1536
100
AcDbEntity
  8
SANINDUSA
100
AcDbLine
 10
0.069008040385653
 20
-0.1206817353560484
 30
0.0
 11
-0.0001261734623472
 21
-0.1206817352917528
 31
0.0
  0
LINE
  5
1561
330
1536
100
AcDbEntity
  8
SANINDUSA
100
AcDbLine
 10
-0.0001261734623472
 20
-0.1128340092446035
 30
0.0
 11
0.0690080403834111
 21
-0.1128340092231292
 31
0.0
  0
LINE
  5
1562
330
1536
100
AcDbEntity
  8
SANINDUSA
100
AcDbLine
 10
-0.0001261734623472
 20
-0.0195768878773436
 30
0.0
 11
0.0774145260775947
 21
-0.0195768879770003
 31
0.0
  0
LWPOLYLINE
  5
1563
330
1536
100
AcDbEntity
  8
SANINDUSA
100
AcDbPolyline
 90
       39
 70
   128
 43
0.0
 10
-0.0001261734623483
 20
-0.3802172973040001
 10
0.0052607487597379
 20
-0.3801021919125992
 10
0.010305095313023
 20
-0.3797900088147168
 10
0.0149204274300303
 20
-0.3793231103438211
 10
0.0197100119890467
 20
-0.3786502675536804
 10
0.0242473419499595
 20
-0.3777720408196234
 10
0.0290262806681847
 20
-0.376585538375499
 10
0.0331215077616514
 20
-0.375299050545334
 10
0.0379865537237095
 20
-0.3734416772343581
 10
0.0421423860142807
 20
-0.3715300813893657
 10
0.045941494127195
 20
-0.3695211700992485
 10
0.0495917603973203
 20
-0.3673431839289981
 10
0.0529919112683172
 20
-0.3650536797166671
 10
0.0589179727870112
 20
-0.3603629695806808
 10
0.064074866817482
 20
-0.3555457813503131
 10
0.0688525189752466
 20
-0.3504350452065364
 10
0.0735931952458884
 20
-0.3446963301602386
 10
0.077994477719318
 20
-0.3385437257696674
 10
0.0811361419596335
 20
-0.3334640339940529
 10
0.0838879597689504
 20
-0.3283925985345241
 10
0.0863748826758274
 20
-0.3232064878000597
 10
0.089013083531911
 20
-0.3173047066820505
 10
0.0912100787033922
 20
-0.311447253968347
 10
0.0929037794233182
 20
-0.3058865284140006
 10
0.0947227724525476
 20
-0.2980041452223134
 10
0.0959501067381519
 20
-0.2902607837725003
 10
0.0967528963078394
 20
-0.2823563506481878
 10
0.0971281069576514
 20
-0.2742762486460004
 10
0.0969307431560321
 20
-0.2640753595411439
 10
0.0961712028726834
 20
-0.2547193217696253
 10
0.095252300496212
 20
-0.244955627617419
 10
0.0942023248278713
 20
-0.2350531133305617
 10
0.0930103444282497
 20
-0.225110509742243
 10
0.0916882094386722
 20
-0.215182290859334
 10
0.0903042512414732
 20
-0.2053585738473441
 10
0.0884105811787129
 20
-0.1916813900184638
 10
0.0863457949290785
 20
-0.1780586926782701
 10
0.0841443644235381
 20
-0.1644541480395822
 10
0.0818320602666518
 20
-0.1508627430510012
  0
LINE
  5
1564
330
1536
100
AcDbEntity
  8
SANINDUSA
100
AcDbLine
 10
0.1193678438413542
 20
-0.0000000000000011
 30
0.0
 11
-0.1196201907660486
 21
0.0
 31
0.0
  0
LINE
  5
1565
330
1536
100
AcDbEntity
  8
SANINDUSA
100
AcDbLine
 10
0.0774145260866101
 20
-0.0069999998070591
 30
0.0
 11
-0.0001261734623472
 21
-0.0069999998291416
 31
0.0
  0
LWPOLYLINE
  5
1566
330
1536
100
AcDbEntity
  8
SANINDUSA
100
AcDbPolyline
 90
        8
 70
   128
 43
0.0
 10
-0.0573839618209843
 20
-0.5094793465704731
 10
-0.0474034511393427
 20
-0.5138551751686186
 10
-0.0375432112897727
 20
-0.5175748038702329
 10
-0.0276959675844899
 20
-0.5204286059453864
 10
-0.0204270573087286
 20
-0.5219547853165779
 10
-0.0133431329181781
 20
-0.5229897191147951
 10
-0.0064552129909202
 20
-0.523579500191363
 10
-0.0001277844519007
 20
-0.523756189195268
  0
LWPOLYLINE
  5
1567
330
1536
100
AcDbEntity
  8
SANINDUSA
100
AcDbPolyline
 90
        9
 70
   128
 43
0.0
 10
-0.000124911156895
 20
-0.5237585918653542
 10
0.0045632118123604
 20
-0.5236601740368292
 10
0.0102932164141782
 20
-0.5232783159121403
 10
0.0166955867654542
 20
-0.5225179682913972
 10
0.0237600331445458
 20
-0.5212618083314703
 10
0.0314321483499202
 20
-0.5193846510741458
 10
0.0396181323380608
 20
-0.5167606264767472
 10
0.0481378522000057
 20
-0.5134497471457849
 10
0.0571316148962865
 20
-0.5094793465704731
  0
LWPOLYLINE
  5
1568
330
1536
100
AcDbEntity
  8
SANINDUSA
100
AcDbPolyline
 90
       33
 70
   128
 43
0.0
 10
-0.0001261730575322
 20
-0.4965604346587714
 10
0.0095229734724728
 20
-0.4960103779824602
 10
0.0190328658959277
 20
-0.4943684163556458
 10
0.0283391365011858
 20
-0.4917291451767176
 10
0.0372614476588501
 20
-0.4883658572069624
 10
0.0459211522289854
 20
-0.484495811516776
 10
0.0543864400013797
 20
-0.4801210382188891
 10
0.06661278664929
 20
-0.4727070747721877
 10
0.0783139016965038
 20
-0.4642932139376342
 10
0.0892991262929684
 20
-0.4550806363574657
 10
0.099506066149429
 20
-0.4451070028279981
 10
0.1070096366600888
 20
-0.4364932327902807
 10
0.1139217368833329
 20
-0.4273303294586311
 10
0.1202186356898585
 20
-0.417720048512594
 10
0.1259153152217561
 20
-0.4077602117962102
 10
0.1310533710322068
 20
-0.3975323049618754
 10
0.1367452830139621
 20
-0.3845335945030774
 10
0.1417499648614205
 20
-0.3712512713378294
 10
0.1459137043461692
 20
-0.3576219000329809
 10
0.1492943699071759
 20
-0.3436693622896723
 10
0.1522624428148685
 20
-0.327511434123702
 10
0.154310286860109
 20
-0.3112795661278255
 10
0.1554390731544765
 20
-0.2949900044822642
 10
0.1555737325306495
 20
-0.2786552170679863
 10
0.1545466427928477
 20
-0.2624126039896203
 10
0.1525916615433278
 20
-0.2455379761324934
 10
0.1505549233450824
 20
-0.2297083166020798
 10
0.1477681162495185
 20
-0.2106662488852771
 10
0.1445530297398079
 20
-0.1918356993771556
 10
0.1408686150945948
 20
-0.1731427707118655
 10
0.1366635090110651
 20
-0.1545101474691546
 10
0.131876385065533
 20
-0.1360752542123521
 10
0.1264664685916978
 20
-0.1177861018946533
  0
LWPOLYLINE
  5
1569
330
1536
100
AcDbEntity
  8
SANINDUSA
100
AcDbPolyline
 90
       29
 70
   128
 43
0.0
 10
-0.0001261733878619
 20
-0.4896933434954145
 10
0.0087409805960988
 20
-0.4891766425152446
 10
0.0174964146133493
 20
-0.4876309725005058
 10
0.0261161491023199
 20
-0.4851385975599613
 10
0.0345908620845137
 20
-0.4818998722427148
 10
0.0428814858875148
 20
-0.478153682130984
 10
0.0509528285030672
 20
-0.4739418564355259
 10
0.0626633418153563
 20
-0.4667812149613759
 10
0.0738887031951879
 20
-0.4586504803605192
 10
0.0844440108737513
 20
-0.4497414956107707
 10
0.094176906436652
 20
-0.4401636366461072
 10
0.103003231015515
 20
-0.4297599046101812
 10
0.1109847663006281
 20
-0.4184987278546169
 10
0.1180449678866023
 20
-0.4066519946533743
 10
0.1242554930813355
 20
-0.3943838043146024
 10
0.1297471205027762
 20
-0.3817485153574592
 10
0.1345674484791721
 20
-0.3688625206807262
 10
0.1385576931016601
 20
-0.3556871549459038
 10
0.1418117875611995
 20
-0.3421410996588702
 10
0.1446754740285826
 20
-0.3264098705434674
 10
0.1466463346997227
 20
-0.3106282314779423
 10
0.1477272651114902
 20
-0.2948274012141133
 10
0.1478504493845412
 20
-0.279041207825245
 10
0.146852495995513
 20
-0.263318278099606
 10
0.1449509496586734
 20
-0.2470820809745658
 10
0.142843944751661
 20
-0.2308649517013396
 10
0.1394626653820933
 20
-0.2083255307112643
 10
0.1354396606859529
 20
-0.1860051226298629
 10
0.1330887078016235
 20
-0.1749271449965579
  0
LWPOLYLINE
  5
156A
330
1536
100
AcDbEntity
  8
SANINDUSA
100
AcDbPolyline
 90
       33
 70
   128
 43
0.0
 10
-0.0001261738671656
 20
-0.4965604346587714
 10
-0.0097753203971706
 20
-0.4960103779824602
 10
-0.0192852128206255
 20
-0.4943684163556458
 10
-0.0285914834258836
 20
-0.4917291451767176
 10
-0.0375137945835479
 20
-0.4883658572069624
 10
-0.0461734991536832
 20
-0.4844958115167754
 10
-0.0546387869260764
 20
-0.4801210382188891
 10
-0.0668651335739878
 20
-0.4727070747721872
 10
-0.0785662486212016
 20
-0.464293213937633
 10
-0.0895514732176651
 20
-0.4550806363574646
 10
-0.0997584130741268
 20
-0.445107002827997
 10
-0.1072619835847866
 20
-0.4364932327902796
 10
-0.1141740838080307
 20
-0.4273303294586299
 10
-0.1204709826145552
 20
-0.4177200485125935
 10
-0.1261676621464528
 20
-0.407760211796209
 10
-0.1313057179569046
 20
-0.3975323049618749
 10
-0.1369976299386587
 20
-0.3845335945030763
 10
-0.1420023117861171
 20
-0.3712512713378282
 10
-0.1461660512708659
 20
-0.3576219000329797
 10
-0.1495467168318726
 20
-0.3436693622896712
 10
-0.1525147897395652
 20
-0.3275114341237008
 10
-0.1545626337848057
 20
-0.3112795661278244
 10
-0.1556914200791732
 20
-0.294990004482263
 10
-0.155826079455345
 20
-0.2786552170679852
 10
-0.1547989897175432
 20
-0.2624126039896191
 10
-0.1528440084680244
 20
-0.2455379761324923
 10
-0.150807270269778
 20
-0.2297083166020786
 10
-0.1480204631742151
 20
-0.210666248885276
 10
-0.1448053766645035
 20
-0.1918356993771545
 10
-0.1411209620192892
 20
-0.1731427707118644
 10
-0.1369158559357595
 20
-0.1545101474691535
 10
-0.1321287319902285
 20
-0.1360752542123509
 10
-0.1267188155163933
 20
-0.1177861018946521
  0
LWPOLYLINE
  5
156B
330
1536
100
AcDbEntity
  8
SANINDUSA
100
AcDbPolyline
 90
       29
 70
   128
 43
0.0
 10
-0.0001261735368359
 20
-0.4896933434954145
 10
-0.0089933275207966
 20
-0.4891766425152446
 10
-0.0177487615380471
 20
-0.4876309725005058
 10
-0.0263684960270177
 20
-0.4851385975599613
 10
-0.0348432090092115
 20
-0.4818998722427148
 10
-0.0431338328122126
 20
-0.4781536821309829
 10
-0.051205175427765
 20
-0.4739418564355253
 10
-0.0629156887400529
 20
-0.4667812149613759
 10
-0.0741410501198846
 20
-0.4586504803605181
 10
-0.0846963577984491
 20
-0.4497414956107697
 10
-0.0944292533613498
 20
-0.440163636646106
 10
-0.1032555779402128
 20
-0.4297599046101812
 10
-0.1112371132253259
 20
-0.4184987278546169
 10
-0.1182973148113001
 20
-0.4066519946533731
 10
-0.1245078400060333
 20
-0.3943838043146013
 10
-0.1299994674274728
 20
-0.381748515357458
 10
-0.1348197954038687
 20
-0.3688625206807251
 10
-0.1388100400263568
 20
-0.3556871549459026
 10
-0.1420641344858961
 20
-0.342141099658869
 10
-0.1449278209532792
 20
-0.3264098705434662
 10
-0.1468986816244194
 20
-0.3106282314779418
 10
-0.1479796120361868
 20
-0.2948274012141121
 10
-0.1481027963092367
 20
-0.2790412078252439
 10
-0.1471048429202096
 20
-0.2633182780996049
 10
-0.1452032965833701
 20
-0.2470820809745652
 10
-0.1430962916763565
 20
-0.2308649517013384
 10
-0.1397150123067888
 20
-0.2083255307112632
 10
-0.1356920076106496
 20
-0.1860051226298617
 10
-0.133341054726319
 20
-0.1749271449965556
  0
LWPOLYLINE
  5
156C
330
1536
100
AcDbEntity
  8
SANINDUSA
100
AcDbPolyline
 90
       41
 70
   128
 43
0.0
 10
0.0571045180861552
 20
-0.5094237409800644
 10
0.0674566089101677
 20
-0.5042727172036076
 10
0.0789802440707365
 20
-0.4975579476971797
 10
0.089312437078894
 20
-0.4906347512648518
 10
0.0985431733110943
 20
-0.4836333682616067
 10
0.1067530807501646
 20
-0.4766701928692788
 10
0.1140152751536061
 20
-0.4698509109945616
 10
0.120345845240272
 20
-0.4633275879588758
 10
0.1257894448961429
 20
-0.4572243614908326
 10
0.1304339111469108
 20
-0.4516046277148746
 10
0.1343694822370935
 20
-0.4465047734375082
 10
0.1380128821194285
 20
-0.4414705095137265
 10
0.1415295357344189
 20
-0.4362873645630771
 10
0.1449157528551098
 20
-0.4309526804637529
 10
0.1481671778038981
 20
-0.4254633243007016
 10
0.1551996041387372
 20
-0.41203857226531
 10
0.1612988148598924
 20
-0.3979495053365565
 10
0.1664411609501167
 20
-0.3835665104775967
 10
0.1708575087297572
 20
-0.3689843880604974
 10
0.1745711302029281
 20
-0.3541823594153379
 10
0.1775799679296415
 20
-0.3391595502626569
 10
0.1798764264431634
 20
-0.3239160209013727
 10
0.1814358627734407
 20
-0.3086036657641239
 10
0.182259644072268
 20
-0.2933021584634434
 10
0.1823601628162408
 20
-0.2781730504036875
 10
0.181793400170377
 20
-0.2636832822303996
 10
0.1806470294547682
 20
-0.2498617248725276
 10
0.1800286424280398
 20
-0.2442759798000873
 10
0.17936939519298
 20
-0.2388274929149736
 10
0.1786608677152492
 20
-0.2332599684826346
 10
0.1777960410035598
 20
-0.2268321891367827
 10
0.1767462068702116
 20
-0.2195015097512157
 10
0.175486603027606
 20
-0.2112689917830744
 10
0.1739899943462581
 20
-0.2021387913305944
 10
0.1722287475990322
 20
-0.1921284698986494
 10
0.1700654906725413
 20
-0.1807069478948165
 10
0.1675378933351487
 20
-0.1683378149010878
 10
0.1646037554494149
 20
-0.1550304688877975
 10
0.1612177971791766
 20
-0.140794325260689
 10
0.1574363636315581
 20
-0.1256868482996356
 10
0.1540157029164322
 20
-0.1121919815998274
  0
LWPOLYLINE
  5
156D
330
1536
100
AcDbEntity
  8
SANINDUSA
100
AcDbPolyline
 90
       39
 70
   128
 43
0.0
 10
-0.154267806585334
 20
-0.1121920632095578
 10
-0.1579159227126445
 20
-0.1265901164597176
 10
-0.1618285719636265
 20
-0.14225270330846
 10
-0.1652325027113704
 20
-0.1566838737545493
 10
-0.1681041002294523
 20
-0.1698254723701643
 10
-0.1705050384903609
 20
-0.1816637641069281
 10
-0.1724913462080837
 20
-0.1921862724682501
 10
-0.1741133326217562
 20
-0.2013817945145149
 10
-0.1755509905099973
 20
-0.2100870726572464
 10
-0.1768596597215003
 20
-0.2185658814478211
 10
-0.1780894604715718
 20
-0.2271286392867227
 10
-0.1792375761965445
 20
-0.2357754653166705
 10
-0.1803079444359344
 20
-0.2445064342958551
 10
-0.1820926767895469
 20
-0.2644610454270935
 10
-0.1826561868162264
 20
-0.2846016036671165
 10
-0.1819636200722823
 20
-0.3047617240149168
 10
-0.1799976587818981
 20
-0.3249425874664724
 10
-0.1776563279413529
 20
-0.3401537515373439
 10
-0.1746047664376136
 20
-0.3551451986892824
 10
-0.170850083097439
 20
-0.3699175321440236
 10
-0.1664623157587414
 20
-0.3842654382580111
 10
-0.1615970762396853
 20
-0.3978319053277119
 10
-0.156119227425354
 20
-0.410628820625783
 10
-0.1535832716678908
 20
-0.415847649871954
 10
-0.1509652817612459
 20
-0.4208751278325542
 10
-0.1480549888134612
 20
-0.4260984386161449
 10
-0.1445099574799053
 20
-0.4320181098376203
 10
-0.1402529668506895
 20
-0.4385822553292167
 10
-0.1351981950763639
 20
-0.4457288333141117
 10
-0.129248365560444
 20
-0.4533875259410536
 10
-0.123221653792167
 20
-0.4604465349845441
 10
-0.1163416969467437
 20
-0.4677762187559336
 10
-0.1085474230892748
 20
-0.4752764865730934
 10
-0.0998612609288023
 20
-0.4827701987750947
 10
-0.0922325590764206
 20
-0.4886945782669671
 10
-0.0839616566453003
 20
-0.494501394967507
 10
-0.0750101646279336
 20
-0.5001350781638917
 10
-0.0653358747774712
 20
-0.5055343312504181
 10
-0.0573644622862241
 20
-0.5094386937423167
  0
ENDBLK
  5
156F
330
1536
100
AcDbEntity
  8
0
100
AcDbBlockEnd
  0
BLOCK
  5
15A7
330
1572
100
AcDbEntity
  8
0
100
AcDbBlockBegin
  2
110450AL
 70
     0
 10
0.0
 20
0.0
 30
0.0
  3
110450AL
  1

  0
LWPOLYLINE
  5
1573
330
1572
100
AcDbEntity
  8
SANINDUSA
100
AcDbPolyline
 90
        7
 70
   128
 43
0.0
 10
0.518721132770437
 20
0.3999999999999988
 10
0.5203760681524057
 20
0.3997181339504175
 10
0.5218444137071947
 20
0.3989044445984996
 10
0.522961336225934
 20
0.3976496729176086
 10
0.5235993224532024
 20
0.3960968551545386
 10
0.523687498801669
 20
0.3944213577606456
 10
0.5231493074815865
 20
0.3926780617866553
  0
LINE
  5
1574
330
1572
100
AcDbEntity
  8
SANINDUSA
100
AcDbLine
 10
0.5049107760325001
 20
0.3999999999999988
 30
0.0
 11
0.5187211328018952
 21
0.3999999999999988
 31
0.0
  0
LWPOLYLINE
  5
1575
330
1572
100
AcDbEntity
  8
SANINDUSA
100
AcDbPolyline
 90
        5
 70
   128
 43
0.0
 10
0.468996086621961
 20
0.3137679626655404
 10
0.4689234903829459
 20
0.3130648708446472
 10
0.4685971926667265
 20
0.3121276272684588
 10
0.468419147712508
 20
0.3117279435868602
 10
0.4684055907360789
 20
0.3116986925949754
  0
LWPOLYLINE
  5
1576
330
1572
100
AcDbEntity
  8
SANINDUSA
100
AcDbPolyline
 90
        7
 70
   128
 43
0.0
 10
0.463507772721822
 20
0.310246978328264
 10
0.4647337065415673
 20
0.3111443055988024
 10
0.4659345420261673
 20
0.3120078163887126
 10
0.4671440719491557
 20
0.3128326428170988
 10
0.468292584056934
 20
0.3135036791647701
 10
0.468657805676097
 20
0.3136647875109167
 10
0.4689960866219588
 20
0.3137679626655324
  0
LWPOLYLINE
  5
1577
330
1572
100
AcDbEntity
  8
SANINDUSA
100
AcDbPolyline
 90
        6
 70
   128
 43
0.0
 10
0.4591521850910488
 20
0.3066456392330803
 10
0.4591522265991136
 20
0.3066456742025355
 10
0.4602527491326055
 20
0.3075703248939556
 10
0.4613457521005728
 20
0.3084816461992057
 10
0.4624316452863866
 20
0.3093762757826392
 10
0.4635077727218243
 20
0.3102469783282709
  0
LWPOLYLINE
  5
1578
330
1572
100
AcDbEntity
  8
SANINDUSA
100
AcDbPolyline
 90
       10
 70
   128
 43
0.0
 10
0.3938443332167082
 20
0.2632217816501441
 10
0.4025310890183358
 20
0.2677061994903113
 10
0.4110814477059137
 20
0.2723959910005527
 10
0.4195493940183804
 20
0.2773639203541183
 10
0.4278031519088302
 20
0.2825688349365697
 10
0.4360612184562229
 20
0.2881959849582376
 10
0.4440251400497528
 20
0.2940754210981561
 10
0.4517519358291998
 20
0.3002576425487234
 10
0.4591521434466688
 20
0.3066456020023929
 10
0.4591521850910488
 20
0.3066456392330803
  0
LINE
  5
1579
330
1572
100
AcDbEntity
  8
SANINDUSA
100
AcDbLine
 10
0.38116559406492
 20
0.1813124375462274
 30
0.0
 11
0.3808902176488243
 21
0.1809926606505939
 31
0.0
  0
LINE
  5
157A
330
1572
100
AcDbEntity
  8
SANINDUSA
100
AcDbLine
 10
0.3811655940649314
 20
0.1813124375462405
 30
0.0
 11
0.380890217648838
 21
0.1809926606506099
 31
0.0
  0
ARC
  5
157B
330
1572
100
AcDbEntity
  8
SANINDUSA
100
AcDbCircle
 10
0.2287843255780092
 20
0.1244268069833845
 30
0.0
 40
0.0707488174911224
100
AcDbArc
 50
281.3004100824102
 51
311.6889472164202
  0
LWPOLYLINE
  5
157C
330
1572
100
AcDbEntity
  8
SANINDUSA
100
AcDbPolyline
 90
       10
 70
   128
 43
0.0
 10
0.2729968013534187
 20
0.0724566193361881
 10
0.2695827828343306
 20
0.0694343848518537
 10
0.2678047508693919
 20
0.0679987757554779
 10
0.2630964098785784
 20
0.0645968010754734
 10
0.2581420196219858
 20
0.0615643168782174
 10
0.2560618820766888
 20
0.0604400259097747
 10
0.2539581763621015
 20
0.0593856639358114
 10
0.2495799893376239
 20
0.057441539696431
 10
0.2463838133993534
 20
0.0562226588177373
 10
0.2431300953523396
 20
0.0551452139429239
  0
LWPOLYLINE
  5
157D
330
1572
100
AcDbEntity
  8
SANINDUSA
100
AcDbPolyline
 90
        3
 70
   128
 43
0.0
 10
0.2250159435768682
 20
0.0556863318751334
 10
0.2238448842132743
 20
0.0556239211070698
 10
0.2233433089138202
 20
0.0556183863535523
  0
LWPOLYLINE
  5
157E
330
1572
100
AcDbEntity
  8
SANINDUSA
100
AcDbPolyline
 90
        9
 70
   128
 43
0.0
 10
0.2231285794603673
 20
0.0693947999334535
 10
0.2282560225462623
 20
0.069791887723336
 10
0.2333314861555584
 20
0.070623077607429
 10
0.2384698080367877
 20
0.0719331094639733
 10
0.2434716543560057
 20
0.0736946963080152
 10
0.2482518549588383
 20
0.0758769107508204
 10
0.2528179675737772
 20
0.0784780023925384
 10
0.2572745798095832
 20
0.081592653462883
 10
0.2614193135979906
 20
0.0851119725918733
  0
LWPOLYLINE
  5
157F
330
1572
100
AcDbEntity
  8
SANINDUSA
100
AcDbPolyline
 90
       11
 70
   128
 43
0.0
 10
0.2429668333985148
 20
0.0551140978434762
 10
0.2428212968898618
 20
0.0550719406221174
 10
0.2412637229279324
 20
0.0548712087287913
 10
0.2394104289738709
 20
0.0548465650575673
 10
0.2373251807391705
 20
0.0549721042775872
 10
0.2350122183857639
 20
0.0551954808328941
 10
0.2325821656102039
 20
0.0554444874172958
 10
0.2300807883010361
 20
0.0556443805917411
 10
0.2276051268767117
 20
0.0557377485826038
 10
0.2251714470997058
 20
0.0556896055123457
 10
0.2250170584177579
 20
0.0556764970846541
  0
LINE
  5
1580
330
1572
100
AcDbEntity
  8
SANINDUSA
100
AcDbLine
 10
0.1714533926973399
 20
0.2296296039206243
 30
0.0
 11
0.1527614755682975
 21
0.2322861781589427
 31
0.0
  0
LWPOLYLINE
  5
1581
330
1572
100
AcDbEntity
  8
SANINDUSA
100
AcDbPolyline
 90
       11
 70
   128
 43
0.0
 10
0.4684055907360858
 20
0.3116986925949879
 10
0.4523556686964014
 20
0.2863516093202787
 10
0.4356459901254574
 20
0.2614102613766369
 10
0.4178794771703532
 20
0.2363341761888432
 10
0.3994426657137911
 20
0.2117196031653487
 10
0.3755145222519707
 20
0.1816810516726554
 10
0.350577931019601
 20
0.1524186047665665
 10
0.3319293117769473
 20
0.1317596715881155
 10
0.3127910389902968
 20
0.1115534295960816
 10
0.2931283848297471
 20
0.0917663836536656
 10
0.2729968013534187
 20
0.0724566193361886
  0
LWPOLYLINE
  5
1582
330
1572
100
AcDbEntity
  8
SANINDUSA
100
AcDbPolyline
 90
        8
 70
   128
 43
0.0
 10
0.2614193135979906
 20
0.0851119725918733
 10
0.2812239066143695
 20
0.1040589281086761
 10
0.3005732997771235
 20
0.1234708949723864
 10
0.3194983461865661
 20
0.1433830802682314
 10
0.3379435788253056
 20
0.1637408263241679
 10
0.3625375541989479
 20
0.1924822084377451
 10
0.3861988219614352
 20
0.2220491303196741
 10
0.4028905569697088
 20
0.244171496442068
  0
LWPOLYLINE
  5
1583
330
1572
100
AcDbEntity
  8
SANINDUSA
100
AcDbPolyline
 90
       14
 70
   128
 43
0.0
 10
0.1714533926973399
 20
0.2296296039206243
 10
0.1921509949538256
 20
0.2285103475123111
 10
0.2129474375990219
 20
0.2284702511047999
 10
0.2337223701512733
 20
0.2293134500613735
 10
0.2544306636636054
 20
0.2308581587484753
 10
0.2750641786319932
 20
0.2329898232015648
 10
0.2904820815931817
 20
0.234953929234772
 10
0.3058626136590363
 20
0.2372360972004361
 10
0.3210756948423057
 20
0.2399175813795119
 10
0.3361226767527535
 20
0.2430912840442528
 10
0.3509755850058104
 20
0.2468753589741868
 10
0.365592392811883
 20
0.2514144846702436
 10
0.379932431054707
 20
0.2568500427016824
 10
0.3938443332167117
 20
0.2632217816501452
  0
LWPOLYLINE
  5
1584
330
1572
100
AcDbEntity
  8
SANINDUSA
100
AcDbPolyline
 90
        7
 70
   128
 43
0.0
 10
0.380890217648838
 20
0.1809926606506099
 10
0.3644494175202135
 20
0.1619010183763987
 10
0.3472271969631072
 20
0.142762080646819
 10
0.3294546095302747
 20
0.123864486283889
 10
0.311247549923362
 20
0.1053444817750273
 10
0.2927301813485326
 20
0.0873247699010835
 10
0.275838395554091
 20
0.0715939604286302
  0
LWPOLYLINE
  5
1585
330
1572
100
AcDbEntity
  8
SANINDUSA
100
AcDbPolyline
 90
        5
 70
   128
 43
0.0
 10
0.1135102830107132
 20
0.3553489950466735
 10
0.1126518292954177
 20
0.3590673664853625
 10
0.1104629584192287
 20
0.3621933980310667
 10
0.1072624406589898
 20
0.3642718385531305
 10
0.1035163747433046
 20
0.3649999999999989
  0
LINE
  5
1586
330
1572
100
AcDbEntity
  8
SANINDUSA
100
AcDbLine
 10
0.1140902179515047
 20
0.3387418350096186
 30
0.0
 11
0.1140021060511174
 21
0.3412650291259945
 31
0.0
  0
LINE
  5
1587
330
1572
100
AcDbEntity
  8
SANINDUSA
100
AcDbLine
 10
0.1140009593697766
 20
0.3412978657760312
 30
0.0
 11
0.1135102593713009
 21
0.3553496719907219
 31
0.0
  0
ARC
  5
1588
330
1572
100
AcDbEntity
  8
SANINDUSA
100
AcDbCircle
 10
0.0479559118275006
 20
0.3569999999999993
 30
0.0
 40
0.0080000000000001
100
AcDbArc
 50
90.0
 51
180.0
  0
LINE
  5
1589
330
1572
100
AcDbEntity
  8
SANINDUSA
100
AcDbLine
 10
-0.0000440881725001
 20
0.3946901695080794
 30
0.0
 11
-0.0000440881725001
 21
0.3649999999729267
 31
0.0
  0
LINE
  5
158A
330
1572
100
AcDbEntity
  8
SANINDUSA
100
AcDbLine
 10
-0.0000440881725001
 20
0.3999999999999988
 30
0.0
 11
-0.0000440881725001
 21
0.3946901695787472
 31
0.0
  0
LWPOLYLINE
  5
158B
330
1572
100
AcDbEntity
  8
SANINDUSA
100
AcDbPolyline
 90
        5
 70
   128
 43
0.0
 10
0.0399559118274999
 20
0.3058468053851903
 10
0.0404398202178504
 20
0.3000468553859025
 10
0.0419395071447355
 20
0.2942314267075972
 10
0.0429470498317903
 20
0.2916893778738233
 10
0.0441596720207053
 20
0.2892157617089089
  0
LINE
  5
158C
330
1572
100
AcDbEntity
  8
SANINDUSA
100
AcDbLine
 10
0.0399559118274999
 20
0.3569999999999993
 30
0.0
 11
0.0399559118274999
 21
0.3058468053851903
 31
0.0
  0
LINE
  5
158D
330
1572
100
AcDbEntity
  8
SANINDUSA
100
AcDbLine
 10
0.0441596720207053
 20
0.2892157617089089
 30
0.0
 11
0.0737046361412956
 21
0.2345063990344244
 31
0.0
  0
LINE
  5
158E
330
1572
100
AcDbEntity
  8
SANINDUSA
100
AcDbLine
 10
0.1133751423864703
 20
0.3999999999999988
 30
0.0
 11
-0.0000440881104953
 21
0.3999999999999988
 31
0.0
  0
LINE
  5
158F
330
1572
100
AcDbEntity
  8
SANINDUSA
100
AcDbLine
 10
0.103324188300885
 20
0.364850286266942
 30
0.0
 11
0.0479559118275006
 21
0.3649999999999989
 31
0.0
  0
LWPOLYLINE
  5
1590
330
1572
100
AcDbEntity
  8
SANINDUSA
100
AcDbPolyline
 90
        9
 70
   128
 43
0.0
 10
0.0774074674308872
 20
0.0650681228418449
 10
0.0778909388337809
 20
0.0650478214982468
 10
0.0785289815539193
 20
0.0650133008186697
 10
0.0793075379044285
 20
0.0649653213805635
 10
0.0802094543295346
 20
0.0649049402916978
 10
0.0812148593405584
 20
0.06483348789942
 10
0.0823016013348297
 20
0.0647525384797541
 10
0.0834457366512345
 20
0.0646638755521394
 10
0.0846220571093352
 20
0.0645694525840071
  0
LWPOLYLINE
  5
1591
330
1572
100
AcDbEntity
  8
SANINDUSA
100
AcDbPolyline
 90
        5
 70
   128
 43
0.0
 10
0.0774074674308872
 20
0.0650681228418449
 10
0.0776804656498246
 20
0.0729992661732638
 10
0.0778418208916662
 20
0.0809368999755054
 10
0.0778920605532255
 20
0.0857970377269908
 10
0.0779083963344999
 20
0.090658254114511
  0
LWPOLYLINE
  5
1592
330
1572
100
AcDbEntity
  8
SANINDUSA
100
AcDbPolyline
 90
        5
 70
   128
 43
0.0
 10
0.0810602932561381
 20
0.0491726657529921
 10
0.0807899741722543
 20
0.0490902847548279
 10
0.0790344717364258
 20
0.0483813782673087
 10
0.07724740475349
 20
0.0474566542476077
 10
0.0771477606869473
 20
0.047396169106874
  0
LWPOLYLINE
  5
1593
330
1572
100
AcDbEntity
  8
SANINDUSA
100
AcDbPolyline
 90
        2
 70
   128
 43
0.0
 10
0.0747513753920998
 20
0.0466326021753844
 10
0.0744446587634241
 20
0.0466012043615598
  0
ARC
  5
1594
330
1572
100
AcDbEntity
  8
SANINDUSA
100
AcDbCircle
 10
0.0743549557451809
 20
0.0520189311440231
 30
0.0
 40
0.0054008969898398
100
AcDbArc
 50
274.2092297732753
 51
301.1379392284691
  0
LINE
  5
1595
330
1572
100
AcDbEntity
  8
SANINDUSA
100
AcDbLine
 10
0.0744446587634241
 20
0.0466012043615598
 30
0.0
 11
0.0712710952172495
 21
0.046490381080493
 31
0.0
  0
LWPOLYLINE
  5
1596
330
1572
100
AcDbEntity
  8
SANINDUSA
100
AcDbPolyline
 90
        4
 70
   128
 43
0.0
 10
0.0712670798232318
 20
0.0464902408598442
 10
0.0733815136797136
 20
0.046899800768939
 10
0.0752951712191271
 20
0.0479456337254163
 10
0.0759772364703599
 20
0.0485334988297541
  0
LWPOLYLINE
  5
1597
330
1572
100
AcDbEntity
  8
SANINDUSA
100
AcDbPolyline
 90
        5
 70
   128
 43
0.0
 10
0.0759772364703565
 20
0.0485334988297518
 10
0.0761578223607705
 20
0.0497506488395948
 10
0.0764201547727555
 20
0.0514412189427617
 10
0.076594323711405
 20
0.052596279344665
 10
0.0767764964825676
 20
0.0538853082011576
  0
LWPOLYLINE
  5
1598
330
1572
100
AcDbEntity
  8
SANINDUSA
100
AcDbPolyline
 90
        5
 70
   128
 43
0.0
 10
0.0767764964825676
 20
0.0538853082011576
 10
0.0768823498066013
 20
0.0546983730218955
 10
0.0769744874500953
 20
0.0555474980670903
 10
0.0771832312347419
 20
0.0583715870836341
 10
0.0772977725735154
 20
0.061516185849473
  0
LWPOLYLINE
  5
1599
330
1572
100
AcDbEntity
  8
SANINDUSA
100
AcDbPolyline
 90
        3
 70
   128
 43
0.0
 10
0.0772977651299436
 20
0.0615161886111446
 10
0.0773415251417339
 20
0.0632857454144636
 10
0.0774074674308872
 20
0.0650681228418444
  0
LINE
  5
159A
330
1572
100
AcDbEntity
  8
SANINDUSA
100
AcDbLine
 10
0.0810713508527408
 20
0.0491751038175886
 30
0.0
 11
0.0810602932561381
 21
0.0491726657529921
 31
0.0
  0
LWPOLYLINE
  5
159B
330
1572
100
AcDbEntity
  8
SANINDUSA
100
AcDbPolyline
 90
        6
 70
   128
 43
0.0
 10
0.0900563914834959
 20
0.0509416441827659
 10
0.0884179978477289
 20
0.0508464184624023
 10
0.0862738740985549
 20
0.0505378432018898
 10
0.0840947606180987
 20
0.0500586535538935
 10
0.0818690490325651
 20
0.0494320329915797
 10
0.0810713508527408
 20
0.0491751038175886
  0
LINE
  5
159C
330
1572
100
AcDbEntity
  8
SANINDUSA
100
AcDbLine
 10
0.0779083963344999
 20
0.217875355358143
 30
0.0
 11
0.0779083963344999
 21
0.090658254114511
 31
0.0
  0
LINE
  5
159D
330
1572
100
AcDbEntity
  8
SANINDUSA
100
AcDbLine
 10
-0.0000440881725001
 20
0.0439999999999998
 30
0.0
 11
-0.0000440881725001
 21
0.0675927794224975
 31
0.0
  0
LINE
  5
159E
330
1572
100
AcDbEntity
  8
SANINDUSA
100
AcDbLine
 10
0.0712692251823273
 20
0.0464903157774347
 30
0.0
 11
-0.000044088172499
 21
0.0439999999999998
 31
0.0
  0
LINE
  5
159F
330
1572
100
AcDbEntity
  8
SANINDUSA
100
AcDbLine
 10
-0.0000440881725001
 20
0.3649999999729767
 30
0.0
 11
-0.0000440881725001
 21
0.0675927609796509
 31
0.0
  0
LWPOLYLINE
  5
15A0
330
1572
100
AcDbEntity
  8
SANINDUSA
100
AcDbPolyline
 90
        5
 70
   128
 43
0.0
 10
0.0737046361412956
 20
0.2345063990344244
 10
0.0749028119563025
 20
0.2320654000733418
 10
0.0759125103585223
 20
0.2295256110415767
 10
0.07739222681966
 20
0.2238641311154061
 10
0.0779083963344999
 20
0.217875355358143
  0
LWPOLYLINE
  5
15A1
330
1572
100
AcDbEntity
  8
SANINDUSA
100
AcDbPolyline
 90
        6
 70
   128
 43
0.0
 10
0.0846220571093352
 20
0.0645694525840071
 10
0.1138647470297008
 20
0.0655883676900044
 10
0.1411806963597303
 20
0.0665400795903577
 10
0.168496651383781
 20
0.0674917233056198
 10
0.1958126123374939
 20
0.0684432972411077
 10
0.2231285794603673
 20
0.0693947999334535
  0
LWPOLYLINE
  5
15A2
330
1572
100
AcDbEntity
  8
SANINDUSA
100
AcDbPolyline
 90
       16
 70
   128
 43
0.0
 10
0.402890556969702
 20
0.2441714964420754
 10
0.3902394183516105
 20
0.2385001928225347
 10
0.3772993063666138
 20
0.2337125703611093
 10
0.364235048521673
 20
0.2297782781751334
 10
0.3511364061476638
 20
0.2266132297901675
 10
0.3380250473621629
 20
0.2241049566903882
 10
0.3216490152772678
 20
0.2217344688762699
 10
0.3052814737758217
 20
0.2200590810642274
 10
0.2889440731689353
 20
0.2189150231943086
 10
0.2726388220230274
 20
0.218206930990728
 10
0.250920803022367
 20
0.2178629647871657
 10
0.2292117257690791
 20
0.2181559325651603
 10
0.2074891782738223
 20
0.2191230752983881
 10
0.1858336693048272
 20
0.2208522702061344
 10
0.1643215005728519
 20
0.2234601939391757
 10
0.1430662754831076
 20
0.2269259517941419
  0
LWPOLYLINE
  5
15A3
330
1572
100
AcDbEntity
  8
SANINDUSA
100
AcDbPolyline
 90
       26
 70
   128
 43
0.0
 10
0.1140892410984884
 20
0.3387698084136525
 10
0.1140892431867758
 20
0.3387697486130242
 10
0.1147700782908521
 20
0.3240192825410293
 10
0.1156693249917532
 20
0.3092740031621167
 10
0.1165516868945122
 20
0.2979580187484134
 10
0.117745477628381
 20
0.286670261718337
 10
0.1177446422288347
 20
0.2866768911868723
 10
0.1194884546104913
 20
0.2754740816856759
 10
0.1207032144737548
 20
0.2698375413646477
 10
0.1222278217835935
 20
0.2642622855882064
 10
0.123910492113688
 20
0.2593829645931811
 10
0.1259668441924589
 20
0.254619232243511
 10
0.1259554749688334
 20
0.2546427743470758
 10
0.1284182013138866
 20
0.2501027586712734
 10
0.1315704168420268
 20
0.24555107836844
 10
0.134281822149436
 20
0.2424378556654221
 10
0.1357637732722958
 20
0.240980135517367
 10
0.1373031975406786
 20
0.2396210569183359
 10
0.1407810697124603
 20
0.2370548155774378
 10
0.1438601306572411
 20
0.2352774344063539
 10
0.1454771617848325
 20
0.2345075658336237
 10
0.1471121187951701
 20
0.2338358615624884
 10
0.1506721368435831
 20
0.2327242102277387
 10
0.1522066236410558
 20
0.2323873878053797
 10
0.1527614165390207
 20
0.2322861883488696
 10
0.1527614755682975
 20
0.2322861781589427
  0
LWPOLYLINE
  5
15A4
330
1572
100
AcDbEntity
  8
SANINDUSA
100
AcDbPolyline
 90
        3
 70
   128
 43
0.0
 10
0.223343880248907
 20
0.0556048102183957
 10
0.1944252139756406
 20
0.0545973394111911
 10
0.0900555042863278
 20
0.0509602275138991
  0
LWPOLYLINE
  5
15A5
330
1572
100
AcDbEntity
  8
SANINDUSA
100
AcDbPolyline
 90
       11
 70
   128
 43
0.0
 10
0.5231493075309994
 20
0.3926780617607449
 10
0.509894772488965
 20
0.3681143195460163
 10
0.494276852155798
 20
0.3408416915767827
 10
0.4806840348913841
 20
0.3184008933745747
 10
0.4665936075063519
 20
0.2962691523053059
 10
0.4520474993038625
 20
0.2745087250613398
 10
0.4370203496487136
 20
0.2530776673605317
 10
0.4193823826014864
 20
0.2291545568897078
 10
0.4011330994556329
 20
0.2056703308247654
 10
0.3855432723807814
 20
0.1865397696812232
 10
0.3808527087672963
 20
0.181024561129675
  0
LINE
  5
15A6
330
1572
100
AcDbEntity
  8
SANINDUSA
100
AcDbLine
 10
0.1133751401584072
 20
0.3999999999999988
 30
0.0
 11
0.5049107755175374
 21
0.3999999999999988
 31
0.0
  0
ENDBLK
  5
15A8
330
1572
100
AcDbEntity
  8
0
100
AcDbBlockEnd
  0
BLOCK
  5
15D1
330
15AA
100
AcDbEntity
  8
0
100
AcDbBlockBegin
  2
110450AF
 70
     0
 10
0.0
 20
0.0
 30
0.0
  3
110450AF
  1

  0
LWPOLYLINE
  5
15AB
330
15AA
100
AcDbEntity
  8
SANINDUSA
100
AcDbPolyline
 90
        5
 70
   128
 43
0.0
 10
0.182345543440855
 20
0.388370368240233
 10
0.1824226638172581
 20
0.3906493303347355
 10
0.18146515009984
 20
0.3927270209203391
 10
0.1796700966376477
 20
0.3941731191892814
 10
0.1774041371486851
 20
0.3946901695080794
  0
LWPOLYLINE
  5
15AC
330
15AA
100
AcDbEntity
  8
SANINDUSA
100
AcDbPolyline
 90
        3
 70
   128
 43
0.0
 10
0.1478006968366196
 20
0.3080971416122452
 10
0.1493983157343473
 20
0.3109965062654214
 10
0.1495293872444586
 20
0.3112033585760281
  0
LWPOLYLINE
  5
15AD
330
15AA
100
AcDbEntity
  8
SANINDUSA
100
AcDbPolyline
 90
        7
 70
   128
 43
0.0
 10
0.1494813133654748
 20
0.3112808961700478
 10
0.1557222146779372
 20
0.322194229243255
 10
0.1622966705977774
 20
0.3350460338238338
 10
0.1682728560351927
 20
0.3482123137932223
 10
0.1736366002981004
 20
0.3616570275238633
 10
0.1783776599785869
 20
0.3753401452096415
 10
0.182236047064722
 20
0.3883660999328225
  0
LINE
  5
15AE
330
15AA
100
AcDbEntity
  8
SANINDUSA
100
AcDbLine
 10
0.0551083143206643
 20
0.3946901695080794
 30
0.0
 11
0.1774181694226081
 21
0.3946901695080794
 31
0.0
  0
LWPOLYLINE
  5
15AF
330
15AA
100
AcDbEntity
  8
SANINDUSA
100
AcDbPolyline
 90
       20
 70
   128
 43
0.0
 10
0.1823139095170245
 20
0.3883709269093328
 10
0.1819996191037262
 20
0.388344346072252
 10
0.1808272637073356
 20
0.3883201883211047
 10
0.1788091697103129
 20
0.3882992018679925
 10
0.1755072561583916
 20
0.3882769855322664
 10
0.1711522549238862
 20
0.3882534646722553
 10
0.1657444730427335
 20
0.3882250543655488
 10
0.1609663140912562
 20
0.38819712365111
 10
0.1553285646945449
 20
0.3881638281967792
 10
0.1487825917339888
 20
0.3881290809340219
 10
0.1414376788626044
 20
0.3880913627293427
 10
0.1333088448596368
 20
0.3880492304269518
 10
0.1243967349190495
 20
0.388001408639347
 10
0.11469110734595
 20
0.387946859572221
 10
0.1042722840360409
 20
0.3878855091365932
 10
0.0919360584097035
 20
0.3878099510954804
 10
0.0789085320621371
 20
0.387728502777432
 10
0.0668740484704313
 20
0.387653847198697
 10
0.0614085289248578
 20
0.3876207189471228
 10
0.0570379731061894
 20
0.3875944198504334
  0
LWPOLYLINE
  5
15B0
330
15AA
100
AcDbEntity
  8
SANINDUSA
100
AcDbPolyline
 90
        3
 70
   128
 43
0.0
 10
0.0982957557432997
 20
0.1635283960863603
 10
0.1000080301930529
 20
0.1720304922295685
 10
0.1022410224425278
 20
0.1835851748739554
  0
LWPOLYLINE
  5
15B1
330
15AA
100
AcDbEntity
  8
SANINDUSA
100
AcDbPolyline
 90
        6
 70
   128
 43
0.0
 10
0.1075637329752408
 20
0.2110631707084633
 10
0.1079965662648578
 20
0.213348270401907
 10
0.1085337026161028
 20
0.2162949657551667
 10
0.1090398075448979
 20
0.2191967292953069
 10
0.1095063634472035
 20
0.2220102090355169
 10
0.109844342534235
 20
0.2241691415658255
  0
LINE
  5
15B2
330
15AA
100
AcDbEntity
  8
SANINDUSA
100
AcDbLine
 10
0.1022682974012321
 20
0.1835814886778257
 30
0.0
 11
0.1075554133546461
 21
0.2110642483867451
 31
0.0
  0
LWPOLYLINE
  5
15B3
330
15AA
100
AcDbEntity
  8
SANINDUSA
100
AcDbPolyline
 90
        5
 70
   128
 43
0.0
 10
0.0655806490522173
 20
0.0855149780687992
 10
0.0654458738306926
 20
0.0789512740840877
 10
0.0653152776276181
 20
0.0723874863497633
 10
0.0651892300569443
 20
0.0658208753723386
 10
0.0650684936366747
 20
0.0592596220920871
  0
LWPOLYLINE
  5
15B4
330
15AA
100
AcDbEntity
  8
SANINDUSA
100
AcDbPolyline
 90
        9
 70
   128
 43
0.0
 10
0.0494606825325047
 20
0.0386901695080798
 10
0.0545319164857267
 20
0.0391188528921976
 10
0.0594557040720827
 20
0.0404046947969556
 10
0.0640836709192411
 20
0.0424934678838798
 10
0.0682894063304752
 20
0.0453387086269288
 10
0.0719583399158432
 20
0.0488481234424711
 10
0.0749775741974224
 20
0.0529307687100163
 10
0.0772632583098175
 20
0.0574454187431314
 10
0.0787513371044918
 20
0.0622829489305775
  0
LWPOLYLINE
  5
15B5
330
15AA
100
AcDbEntity
  8
SANINDUSA
100
AcDbPolyline
 90
        5
 70
   128
 43
0.0
 10
0.0622383345360163
 20
0.0498194890035791
 10
0.0616079765117047
 20
0.0488831810943145
 10
0.0597132239729319
 20
0.0466489635611077
 10
0.0574645968779828
 20
0.0447301894718464
 10
0.0565451269806181
 20
0.0441071321994809
  0
LWPOLYLINE
  5
15B6
330
15AA
100
AcDbEntity
  8
SANINDUSA
100
AcDbPolyline
 90
        5
 70
   128
 43
0.0
 10
0.0564704943896561
 20
0.0440600486902582
 10
0.0557869001661607
 20
0.0435875499368626
 10
0.0550456957921711
 20
0.04307841883435
 10
0.0542451696266107
 20
0.0425450574598335
 10
0.0533940571721621
 20
0.0420048378184078
  0
LWPOLYLINE
  5
15B7
330
15AA
100
AcDbEntity
  8
SANINDUSA
100
AcDbPolyline
 90
        5
 70
   128
 43
0.0
 10
0.0648493106773162
 20
0.0567457590788541
 10
0.0642047323742122
 20
0.0540412130919276
 10
0.0631367554065355
 20
0.0514163925400101
 10
0.0627066149988195
 20
0.050605719419068
 10
0.0622383345360163
 20
0.0498194890035791
  0
LWPOLYLINE
  5
15B8
330
15AA
100
AcDbEntity
  8
SANINDUSA
100
AcDbPolyline
 90
        3
 70
   128
 43
0.0
 10
0.0650684936366747
 20
0.0592596220920871
 10
0.0650040871496765
 20
0.0580048695141642
 10
0.0648493106388355
 20
0.0567457551088921
  0
LWPOLYLINE
  5
15B9
330
15AA
100
AcDbEntity
  8
SANINDUSA
100
AcDbPolyline
 90
        5
 70
   128
 43
0.0
 10
0.0982957557432997
 20
0.1635283960863666
 10
0.0974878110546797
 20
0.1585438444371295
 10
0.0902302077324794
 20
0.118478682754166
 10
0.0822236895930985
 20
0.0785136707832027
 10
0.0787514249305718
 20
0.0622829304877308
  0
LWPOLYLINE
  5
15BA
330
15AA
100
AcDbEntity
  8
SANINDUSA
100
AcDbPolyline
 90
       15
 70
   128
 43
0.0
 10
0.1477359901655291
 20
0.3081329944349722
 10
0.1419839586577791
 20
0.2978951071312577
 10
0.1351842444228998
 20
0.2872326745724258
 10
0.128362535837598
 20
0.2776824763213432
 10
0.1216558724258323
 20
0.2692062463689575
 10
0.1151859594123232
 20
0.2617525565709349
 10
0.1090586193995762
 20
0.2552613462114158
 10
0.1033640543958973
 20
0.2496680543246833
 10
0.0981776974310981
 20
0.2449072247997248
 10
0.0935614429982775
 20
0.2409155292402289
 10
0.0786070996639819
 20
0.2286368977003815
 42
0.2190574413770473
 10
0.0681026696460072
 20
0.2070035487649017
 10
0.0665629768767383
 20
0.1327481811312515
 10
0.0659184623533929
 20
0.1017395351898011
 10
0.0655806490522173
 20
0.0855149780687992
  0
LWPOLYLINE
  5
15BB
330
15AA
100
AcDbEntity
  8
SANINDUSA
100
AcDbPolyline
 90
        4
 70
   128
 43
0.0
 10
0.1098541329530326
 20
0.224179966245826
 10
0.1099234739583051
 20
0.2246143325469796
 10
0.1137452519288286
 20
0.2504871042342143
 10
0.115297010894717
 20
0.2618804938862655
  0
LINE
  5
15BC
330
15AA
100
AcDbEntity
  8
SANINDUSA
100
AcDbLine
 10
-0.0551579304003985
 20
0.3946901695080794
 30
0.0
 11
-0.0000248079080757
 21
0.3946901695080794
 31
0.0
  0
LWPOLYLINE
  5
15BD
330
15AA
100
AcDbEntity
  8
SANINDUSA
100
AcDbPolyline
 90
        7
 70
   128
 43
0.0
 10
-0.0570875893343987
 20
0.3875947518450795
 10
-0.0481234705935549
 20
0.3875458475905509
 10
-0.0389702756669135
 20
0.3874987157166896
 10
-0.0294617288364441
 20
0.387432793060824
 10
-0.0197333602253241
 20
0.3873893709792555
 10
-0.0099147872582273
 20
0.3873680078221315
 10
-0.0000248079290986
 20
0.3873682313565627
  0
LWPOLYLINE
  5
15BE
330
15AA
100
AcDbEntity
  8
SANINDUSA
100
AcDbPolyline
 90
        3
 70
   128
 43
0.0
 10
-0.0983453719000977
 20
0.1635283960863677
 10
-0.1000576463498498
 20
0.1720304922295685
 10
-0.1023116597232138
 20
0.1836939492843521
  0
LWPOLYLINE
  5
15BF
330
15AA
100
AcDbEntity
  8
SANINDUSA
100
AcDbPolyline
 90
        7
 70
   128
 43
0.0
 10
-0.109891855326764
 20
0.2241633613162588
 10
-0.1097099813414343
 20
0.2229746074237312
 10
-0.1092608135486341
 20
0.220213072316808
 10
-0.1087707062587867
 20
0.2173533522481932
 10
-0.1082505415721312
 20
0.214455326975343
 10
-0.1076972076956713
 20
0.2114933032220955
 10
-0.1076138623489032
 20
0.2110621310972215
  0
LWPOLYLINE
  5
15C0
330
15AA
100
AcDbEntity
  8
SANINDUSA
100
AcDbPolyline
 90
        3
 70
   128
 43
0.0
 10
-0.1075973026838074
 20
0.2110657821441538
 10
-0.1031254041564227
 20
0.1877260905691776
 10
-0.1023318376103146
 20
0.1836916368718613
  0
LWPOLYLINE
  5
15C1
330
15AA
100
AcDbEntity
  8
SANINDUSA
100
AcDbPolyline
 90
        5
 70
   128
 43
0.0
 10
-0.0656302652090153
 20
0.0855149780687992
 10
-0.0654954899874906
 20
0.0789512740840877
 10
-0.065364893784415
 20
0.0723874863497633
 10
-0.0652388462137412
 20
0.0658208753723386
 10
-0.0651181097934728
 20
0.0592596220920871
  0
LWPOLYLINE
  5
15C2
330
15AA
100
AcDbEntity
  8
SANINDUSA
100
AcDbPolyline
 90
        9
 70
   128
 43
0.0
 10
-0.0495102986893016
 20
0.0386901695080798
 10
-0.0545815326425236
 20
0.0391188528921976
 10
-0.0595053202288807
 20
0.0404046947969556
 10
-0.0641332870760391
 20
0.0424934678838798
 10
-0.0683390224872733
 20
0.0453387086269288
 10
-0.0720079560726413
 20
0.0488481234424711
 10
-0.0750271903542205
 20
0.0529307687100163
 10
-0.0773128744666156
 20
0.0574454187431314
 10
-0.0788009532612887
 20
0.0622829489305775
  0
LWPOLYLINE
  5
15C3
330
15AA
100
AcDbEntity
  8
SANINDUSA
100
AcDbPolyline
 90
        5
 70
   128
 43
0.0
 10
-0.056520110546453
 20
0.0440600486902582
 10
-0.0558365163229587
 20
0.0435875499368626
 10
-0.0550953119489691
 20
0.04307841883435
 10
-0.0542947857834088
 20
0.0425450574598335
 10
-0.053443673328959
 20
0.0420048378184078
  0
LWPOLYLINE
  5
15C4
330
15AA
100
AcDbEntity
  8
SANINDUSA
100
AcDbPolyline
 90
        5
 70
   128
 43
0.0
 10
-0.0648989268341143
 20
0.0567457590788541
 10
-0.0642543485310091
 20
0.0540412130919276
 10
-0.0631863715633335
 20
0.0514163925400101
 10
-0.0627562311556176
 20
0.050605719419068
 10
-0.0622879506928132
 20
0.0498194890035791
  0
LWPOLYLINE
  5
15C5
330
15AA
100
AcDbEntity
  8
SANINDUSA
100
AcDbPolyline
 90
        5
 70
   128
 43
0.0
 10
-0.0622879506928132
 20
0.0498194890035791
 10
-0.0616575926685027
 20
0.0488831810943145
 10
-0.0597628401297288
 20
0.0466489635611077
 10
-0.0575142130347808
 20
0.0447301894718464
 10
-0.0565947431374161
 20
0.0441071321994809
  0
LWPOLYLINE
  5
15C6
330
15AA
100
AcDbEntity
  8
SANINDUSA
100
AcDbPolyline
 90
        5
 70
   128
 43
0.0
 10
-0.0983453719000977
 20
0.1635283960863666
 10
-0.0975374272114766
 20
0.1585438444371295
 10
-0.0902798238892774
 20
0.118478682754166
 10
-0.0822733057498954
 20
0.0785136707832027
 10
-0.0788010410873699
 20
0.0622829304877308
  0
LWPOLYLINE
  5
15C7
330
15AA
100
AcDbEntity
  8
SANINDUSA
100
AcDbPolyline
 90
        4
 70
   128
 43
0.0
 10
-0.1153540230350131
 20
0.2619333828334919
 10
-0.1140712571947029
 20
0.2524409011693882
 10
-0.1112497563825639
 20
0.2330328096862013
 10
-0.109871432892055
 20
0.2241841276286602
  0
LWPOLYLINE
  5
15C8
330
15AA
100
AcDbEntity
  8
SANINDUSA
100
AcDbPolyline
 90
        5
 70
   128
 43
0.0
 10
-0.1774537533054831
 20
0.3946901695080794
 10
-0.1797197127944446
 20
0.3941731191892814
 10
-0.1815147662566369
 20
0.3927270209203391
 10
-0.1824722799740561
 20
0.3906493303347355
 10
-0.1823951595976518
 20
0.388370368240233
  0
LWPOLYLINE
  5
15C9
330
15AA
100
AcDbEntity
  8
SANINDUSA
100
AcDbPolyline
 90
        3
 70
   128
 43
0.0
 10
-0.1495890986007737
 20
0.311197371908026
 10
-0.1491987366546812
 20
0.3105728831701379
 10
-0.1478513849310934
 20
0.3080971246110403
  0
LWPOLYLINE
  5
15CA
330
15AA
100
AcDbEntity
  8
SANINDUSA
100
AcDbPolyline
 90
        7
 70
   128
 43
0.0
 10
-0.1822856632215189
 20
0.3883660999328225
 10
-0.178427276135385
 20
0.3753401452096415
 10
-0.1736862164548973
 20
0.3616570275238633
 10
-0.1683224721919896
 20
0.3482123137932223
 10
-0.1623462867545754
 20
0.3350460338238338
 10
-0.1557718308347341
 20
0.322194229243255
 10
-0.1495309295222717
 20
0.3112808961700478
  0
LWPOLYLINE
  5
15CB
330
15AA
100
AcDbEntity
  8
SANINDUSA
100
AcDbPolyline
 90
       15
 70
   128
 43
0.0
 10
-0.1477856063223271
 20
0.3081329944349722
 10
-0.142033574814576
 20
0.2978951071312577
 10
-0.1352338605796967
 20
0.2872326745724258
 10
-0.128412151994396
 20
0.2776824763213432
 10
-0.1217054885826292
 20
0.2692062463689575
 10
-0.1152355755691212
 20
0.2617525565709349
 10
-0.1091082355563731
 20
0.2552613462114158
 10
-0.1034136705526953
 20
0.2496680543246833
 10
-0.098227313587895
 20
0.2449072247997248
 10
-0.0936110591550744
 20
0.2409155292402289
 10
-0.0786567158207799
 20
0.2286368977003815
 42
-0.2190574413770473
 10
-0.0681522858028041
 20
0.2070035487649017
 10
-0.0666125930335352
 20
0.1327481811312515
 10
-0.0659680785101909
 20
0.1017395351898011
 10
-0.0656302652090153
 20
0.0855149780687992
  0
LINE
  5
15CC
330
15AA
100
AcDbEntity
  8
SANINDUSA
100
AcDbLine
 10
-0.0551579304774623
 20
0.3946901695080794
 30
0.0
 11
-0.1774677855794061
 21
0.3946901695080794
 31
0.0
  0
LWPOLYLINE
  5
15CD
330
15AA
100
AcDbEntity
  8
SANINDUSA
100
AcDbPolyline
 90
       20
 70
   128
 43
0.0
 10
-0.1823635256738214
 20
0.3883709269093328
 10
-0.1820492352605243
 20
0.388344346072252
 10
-0.1808768798641336
 20
0.3883201883211047
 10
-0.1788587858671099
 20
0.3882992018679925
 10
-0.1755568723151896
 20
0.3882769855322664
 10
-0.1712018710806831
 20
0.3882534646722553
 10
-0.1657940891995304
 20
0.3882250543655488
 10
-0.1610159302480531
 20
0.38819712365111
 10
-0.1553781808513418
 20
0.3881638281967792
 10
-0.1488322078907856
 20
0.3881290809340219
 10
-0.1414872950194012
 20
0.3880913627293427
 10
-0.1333584610164348
 20
0.3880492304269518
 10
-0.1244463510758476
 20
0.388001408639347
 10
-0.1147407235027481
 20
0.387946859572221
 10
-0.1043219001928378
 20
0.3878855091365932
 10
-0.0919856745665004
 20
0.3878099510954804
 10
-0.078958148218934
 20
0.387728502777432
 10
-0.0669236646272282
 20
0.387653847198697
 10
-0.0614581450816559
 20
0.3876207189471228
 10
-0.0570875892629863
 20
0.3875944198504334
  0
LINE
  5
15CE
330
15AA
100
AcDbEntity
  8
SANINDUSA
100
AcDbLine
 10
-0.0495102986893016
 20
0.0386901695080798
 30
0.0
 11
0.0494606825325047
 21
0.0386901695080798
 31
0.0
  0
LINE
  5
15CF
330
15AA
100
AcDbEntity
  8
SANINDUSA
100
AcDbLine
 10
0.0551083142436016
 20
0.3946901695080794
 30
0.0
 11
-0.0000248082487212
 21
0.3946901695080794
 31
0.0
  0
LWPOLYLINE
  5
15D0
330
15AA
100
AcDbEntity
  8
SANINDUSA
100
AcDbPolyline
 90
        7
 70
   128
 43
0.0
 10
0.0570379731776006
 20
0.3875947518450795
 10
0.0480738544367569
 20
0.3875458475905509
 10
0.0389206595101166
 20
0.3874987157166896
 10
0.0294121126796472
 20
0.387432793060824
 10
0.0196837440685272
 20
0.3873893709792555
 10
0.0098651711014293
 20
0.3873680078221315
 10
-0.0000248082276983
 20
0.3873682313565627
  0
ENDBLK
  5
15D2
330
15AA
100
AcDbEntity
  8
0
100
AcDbBlockEnd
  0
BLOCK
  5
165E
330
15D4
100
AcDbEntity
  8
0
100
AcDbBlockBegin
  2
110450CT
 70
     0
 10
0.0
 20
0.0
 30
0.0
  3
110450CT
  1

  0
LWPOLYLINE
  5
15D5
330
15D4
100
AcDbEntity
  8
SANINDUSA
100
AcDbPolyline
 90
        7
 70
   128
 43
0.0
 10
0.5187652209446697
 20
0.4
 10
0.5204201563266384
 20
0.3997181339504187
 10
0.5218885018814275
 20
0.3989044445984996
 10
0.5230054244001679
 20
0.3976496729176086
 10
0.5236434106274351
 20
0.3960968551545392
 10
0.5237315869759016
 20
0.3944213577606462
 10
0.5231933956558203
 20
0.3926780617866553
  0
LINE
  5
15D6
330
15D4
100
AcDbEntity
  8
SANINDUSA
100
AcDbLine
 10
0.4976707292340893
 20
0.39
 30
0.0
 11
0.5103853737321993
 21
0.39
 31
0.0
  0
LWPOLYLINE
  5
15D7
330
15D4
100
AcDbEntity
  8
SANINDUSA
100
AcDbPolyline
 90
        5
 70
   128
 43
0.0
 10
0.4896933429661943
 20
0.396104030911564
 10
0.4909353675790248
 20
0.3976884646273641
 10
0.493135427053203
 20
0.3992297467955723
 10
0.4957215786816142
 20
0.3999558963760046
 10
0.4965604322807872
 20
0.4
  0
LINE
  5
15D8
330
15D4
100
AcDbEntity
  8
SANINDUSA
100
AcDbLine
 10
0.4965604322807872
 20
0.4
 30
0.0
 11
0.5187652209446697
 21
0.4
 31
0.0
  0
LWPOLYLINE
  5
15D9
330
15D4
100
AcDbEntity
  8
SANINDUSA
100
AcDbPolyline
 90
        9
 70
   128
 43
0.0
 10
0.3297045796098098
 20
0.2453450309587447
 10
0.3363152425616295
 20
0.2457927011140089
 10
0.3429113833737278
 20
0.2467946714879599
 10
0.3495407924263418
 20
0.2483824655274634
 10
0.3560578664372849
 20
0.2505467122174593
 10
0.3624318100687151
 20
0.253293987472988
 10
0.368589159036801
 20
0.2566105369300078
 10
0.3745694358121478
 20
0.2605506608684777
 10
0.3802172972901372
 20
0.2650481157383871
  0
LWPOLYLINE
  5
15DA
330
15D4
100
AcDbEntity
  8
SANINDUSA
100
AcDbPolyline
 90
        9
 70
   128
 43
0.0
 10
0.3303802261922886
 20
0.2353678819824302
 10
0.3374058478473034
 20
0.2358436528937659
 10
0.3448302924997779
 20
0.2369714447036642
 10
0.3522862361134969
 20
0.2387572000756415
 10
0.3596193973557502
 20
0.241192460120119
 10
0.3667902350376937
 20
0.2442832099077191
 10
0.3737211589334345
 20
0.248016432111333
 10
0.3804468507702518
 20
0.2524476750795952
 10
0.3864466360471965
 20
0.2572253707821836
  0
LWPOLYLINE
  5
15DB
330
15D4
100
AcDbEntity
  8
SANINDUSA
100
AcDbPolyline
 90
        5
 70
   128
 43
0.0
 10
0.1537424693127332
 20
0.243512954162
 10
0.1529156573004821
 20
0.244485295269161
 10
0.1521131378811253
 20
0.2466295887928788
 10
0.1514097011287936
 20
0.2498027740086343
 10
0.1508627430527326
 20
0.2536811671890002
  0
LWPOLYLINE
  5
15DC
330
15D4
100
AcDbEntity
  8
SANINDUSA
100
AcDbPolyline
 90
       12
 70
   128
 43
0.0
 10
0.1508502244364809
 20
0.2536817747463834
 10
0.152022338783537
 20
0.2657383220969951
 10
0.1540732691277674
 20
0.2780338379695098
 10
0.1567522512445976
 20
0.2905355924509388
 10
0.1598031750379914
 20
0.3032033193273009
 10
0.1629666656804045
 20
0.3159932106961389
 10
0.1654787525963673
 20
0.3267006048280467
 10
0.1676998351183352
 20
0.3374380893557918
 10
0.1694657599194739
 20
0.3481971645625362
 10
0.1706123736729523
 20
0.358969330731444
 10
0.1709710136663546
 20
0.3697639452903843
 10
0.170394300901761
 20
0.3806302202072982
  0
LINE
  5
15DD
330
15D4
100
AcDbEntity
  8
SANINDUSA
100
AcDbLine
 10
0.2777603094765504
 20
0.0733427227813684
 30
0.0
 11
0.2758770548013649
 21
0.0715889046330705
 31
0.0
  0
LINE
  5
15DE
330
15D4
100
AcDbEntity
  8
SANINDUSA
100
AcDbLine
 10
0.269482027744167
 20
0.0792503310229887
 30
0.0
 11
0.2708836033635817
 21
0.0806029509482971
 31
0.0
  0
LWPOLYLINE
  5
15DF
330
15D4
100
AcDbEntity
  8
SANINDUSA
100
AcDbPolyline
 90
        8
 70
   128
 43
0.0
 10
0.2467171999588641
 20
0.0550445349143973
 10
0.2460505953636084
 20
0.0549632525546576
 10
0.2453946631596
 20
0.0551072020215304
 10
0.2448233545360677
 20
0.0554601540669103
 10
0.2444010797287729
 20
0.0559823164810939
 10
0.2441754471641036
 20
0.0566148200388244
 10
0.2441621898074664
 20
0.0567013114091913
 10
0.244147997738678
 20
0.0568563418971041
  0
LINE
  5
15E0
330
15D4
100
AcDbEntity
  8
SANINDUSA
100
AcDbLine
 10
0.2432873024305672
 20
0.0551586820774105
 30
0.0
 11
0.2428996911027036
 21
0.0550841043662229
 31
0.0
  0
LWPOLYLINE
  5
15E1
330
15D4
100
AcDbEntity
  8
SANINDUSA
100
AcDbPolyline
 90
        7
 70
   128
 43
0.0
 10
0.2441161109591576
 20
0.0574647778956444
 10
0.2439620825961424
 20
0.0575361559369174
 10
0.2435046852495566
 20
0.0575074870164713
 10
0.2430499782241304
 20
0.0574327678608063
 10
0.2424700472363361
 20
0.0573165275765831
 10
0.2417555274962171
 20
0.0571581011402759
 10
0.2409168089444654
 20
0.0569619207696178
  0
LWPOLYLINE
  5
15E2
330
15D4
100
AcDbEntity
  8
SANINDUSA
100
AcDbPolyline
 90
        3
 70
   128
 43
0.0
 10
0.2448118833791057
 20
0.0554768707713248
 10
0.2438616272968557
 20
0.055283361499113
 10
0.2432873024305672
 20
0.0551586820774105
  0
LWPOLYLINE
  5
15E3
330
15D4
100
AcDbEntity
  8
SANINDUSA
100
AcDbPolyline
 90
        6
 70
   128
 43
0.0
 10
0.269482027744167
 20
0.0792503310229887
 10
0.2648406553362156
 20
0.0753574577428901
 10
0.2601459257703186
 20
0.0720668089980643
 10
0.2578373345876787
 20
0.0706626884693651
 10
0.2553775284031554
 20
0.0693088017412111
 10
0.2535561887873155
 20
0.0684105961692399
  0
LWPOLYLINE
  5
15E4
330
15D4
100
AcDbEntity
  8
SANINDUSA
100
AcDbPolyline
 90
        9
 70
   128
 43
0.0
 10
0.2759082563082689
 20
0.071588504449519
 10
0.2709350313765389
 20
0.0674172954296432
 10
0.2656197767503193
 20
0.0636917057617632
 10
0.2628488706985581
 20
0.0620063982462398
 10
0.2600023041089685
 20
0.060439637112496
 10
0.256863564594139
 20
0.0588917471436685
 10
0.2536489541404603
 20
0.0574890628622757
 10
0.2502172082781817
 20
0.0561833049964309
 10
0.2467171999588641
 20
0.0550445349143973
  0
LINE
  5
15E5
330
15D4
100
AcDbEntity
  8
SANINDUSA
100
AcDbLine
 10
0.2449240547714942
 20
0.2331215133987393
 30
0.0
 11
0.2535561887873155
 21
0.0684105961692399
 31
0.0
  0
LINE
  5
15E6
330
15D4
100
AcDbEntity
  8
SANINDUSA
100
AcDbLine
 10
0.2349240548062767
 20
0.2328596535005846
 30
0.0
 11
0.2441479645338711
 21
0.0568569838374754
 31
0.0
  0
LINE
  5
15E7
330
15D4
100
AcDbEntity
  8
SANINDUSA
100
AcDbLine
 10
0.2038110927159846
 20
0.2320874439467969
 30
0.0
 11
0.2038110927159846
 21
0.1960000000000002
 31
0.0
  0
LINE
  5
15E8
330
15D4
100
AcDbEntity
  8
SANINDUSA
100
AcDbLine
 10
0.2138110927159846
 20
0.2274321637142953
 30
0.0
 11
0.2197914962923721
 21
0.2324633889676659
 31
0.0
  0
LINE
  5
15E9
330
15D4
100
AcDbEntity
  8
SANINDUSA
100
AcDbLine
 10
0.2138110927159846
 20
0.2274321637142953
 30
0.0
 11
0.2138110927159846
 21
0.1960000000000002
 31
0.0
  0
LINE
  5
15EA
330
15D4
100
AcDbEntity
  8
SANINDUSA
100
AcDbLine
 10
0.1478110927159844
 20
0.2071905804432407
 30
0.0
 11
0.1578110927159844
 21
0.2071905804432407
 31
0.0
  0
LINE
  5
15EB
330
15D4
100
AcDbEntity
  8
SANINDUSA
100
AcDbLine
 10
0.1578110927159833
 20
0.1960000000000002
 30
0.0
 11
0.1578110927159833
 21
0.230228785354227
 31
0.0
  0
LINE
  5
15EC
330
15D4
100
AcDbEntity
  8
SANINDUSA
100
AcDbLine
 10
0.2138110927159846
 20
0.1960000000000002
 30
0.0
 11
0.1478110927159832
 21
0.1960000000000002
 31
0.0
  0
LWPOLYLINE
  5
15ED
330
15D4
100
AcDbEntity
  8
SANINDUSA
100
AcDbPolyline
 90
       48
 70
   128
 43
0.0
 10
0.1582762540608144
 20
0.2302811331876467
 10
0.1584192191894067
 20
0.2302969217554267
 10
0.1589140446156432
 20
0.2303500953334731
 10
0.1595666688044423
 20
0.230418499633675
 10
0.1601651812461319
 20
0.2304802650650834
 10
0.1609345714514006
 20
0.2305572259526832
 10
0.1619040518571023
 20
0.2306493822964763
 10
0.1631027152093111
 20
0.2307567340964602
 10
0.1645579783443566
 20
0.2308792813526361
 10
0.166185889894
 20
0.2310061682572029
 10
0.167718247291491
 20
0.2311163476891272
 10
0.1691021781386792
 20
0.2312098196484078
 10
0.1702982613923621
 20
0.2312865841350458
 10
0.1712781376355633
 20
0.2313466411490401
 10
0.1720222274833691
 20
0.2313899906903924
 10
0.1749713476180705
 20
0.2315434101291356
 10
0.1779230991810562
 20
0.2316741247777782
 10
0.1808191625258541
 20
0.2317821346363201
 10
0.1848436607254075
 20
0.2318998699650973
 10
0.1890354178789607
 20
0.2319893498083632
 10
0.1931965679229666
 20
0.2320505741661179
 10
0.1951877575781407
 20
0.2320705905379293
 10
0.1961453054048491
 20
0.2320779497720685
 10
0.196612448857951
 20
0.2320809671511961
 10
0.1968428396084414
 20
0.2320823102812744
 10
0.1969572050844943
 20
0.2320829404564427
 10
0.1970141759871444
 20
0.2320832451965583
 10
0.1970426079328138
 20
0.2320833949797497
 10
0.1970568104607764
 20
0.2320834692246285
 10
0.1970639083549759
 20
0.2320835061853882
 10
0.1970674564585579
 20
0.2320835246253489
 10
0.1970692302993371
 20
0.2320835338352242
 10
0.1970701171669566
 20
0.2320835384376358
 10
0.1970705605875719
 20
0.2320835407382094
 10
0.1970707822945803
 20
0.2320835418883388
 10
0.1970708931472598
 20
0.232083542463364
 10
0.1970709485733937
 20
0.2320835427508666
 10
0.1970709762864089
 20
0.2320835428946157
 10
0.1970709901429029
 20
0.2320835429664896
 10
0.1970710039993901
 20
0.2320835430383624
 10
0.1971688652020089
 20
0.2320838084882757
 10
0.1979956302004064
 20
0.2320845875192754
 10
0.1989345673786124
 20
0.2320850924409933
 10
0.2000929276455326
 20
0.2320855858168869
 10
0.2013495605181674
 20
0.232086067646955
 10
0.2025383617339514
 20
0.2320865379311976
 10
0.2034452106937488
 20
0.2320869966696148
 10
0.2038110927121829
 20
0.232087443862207
  0
LINE
  5
15EE
330
15D4
100
AcDbEntity
  8
SANINDUSA
100
AcDbLine
 10
0.2248788939028418
 20
0.0576407413475698
 30
0.0
 11
0.2232498072572298
 21
0.0575663084067884
 31
0.0
  0
LWPOLYLINE
  5
15EF
330
15D4
100
AcDbEntity
  8
SANINDUSA
100
AcDbPolyline
 90
        3
 70
   128
 43
0.0
 10
0.2250585906681294
 20
0.0557119965119205
 10
0.2235697758770038
 20
0.0556113880509145
 10
0.2233878467289389
 20
0.0556056253474617
  0
LWPOLYLINE
  5
15F0
330
15D4
100
AcDbEntity
  8
SANINDUSA
100
AcDbPolyline
 90
        8
 70
   128
 43
0.0
 10
0.2409168089444654
 20
0.0569619207696184
 10
0.2393105622715109
 20
0.0567615422258126
 10
0.2374176792833043
 20
0.0567970309607722
 10
0.2348988941873586
 20
0.0570390371254399
 10
0.2321220718138932
 20
0.0573636994590703
 10
0.2291751148362004
 20
0.0576223971943404
 10
0.2261023464083018
 20
0.0576899984527302
 10
0.2248788939028418
 20
0.0576407413475704
  0
LWPOLYLINE
  5
15F1
330
15D4
100
AcDbEntity
  8
SANINDUSA
100
AcDbPolyline
 90
       10
 70
   128
 43
0.0
 10
0.2426916221747263
 20
0.0550646375889971
 10
0.2421218610916935
 20
0.0549494855757723
 10
0.2404079686623686
 20
0.05483712309346
 10
0.2384293813783097
 20
0.0548930850662589
 10
0.2362158966682466
 20
0.0550761481873156
 10
0.233860116758076
 20
0.0553206054570194
 10
0.231383742114865
 20
0.0555543520527329
 10
0.2288946201739498
 20
0.0557063357798404
 10
0.2264361781604464
 20
0.0557333841841074
 10
0.2250601215613983
 20
0.0556612453469825
  0
LWPOLYLINE
  5
15F2
330
15D4
100
AcDbEntity
  8
SANINDUSA
100
AcDbPolyline
 90
        2
 70
   128
 43
0.0
 10
0.2197914962923721
 20
0.2324633889676659
 10
0.2349240548062767
 20
0.2328596535005841
  0
LINE
  5
15F3
330
15D4
100
AcDbEntity
  8
SANINDUSA
100
AcDbLine
 10
0.2038110928882713
 20
0.2320874439033622
 30
0.0
 11
0.2160315795618499
 21
0.2423683589578803
 31
0.0
  0
LWPOLYLINE
  5
15F4
330
15D4
100
AcDbEntity
  8
SANINDUSA
100
AcDbPolyline
 90
        3
 70
   128
 43
0.0
 10
0.2449240547714942
 20
0.2331215133987393
 10
0.2826508249658719
 20
0.2341094258471355
 10
0.329966355794827
 20
0.2353484584382767
  0
LWPOLYLINE
  5
15F5
330
15D4
100
AcDbEntity
  8
SANINDUSA
100
AcDbPolyline
 90
        4
 70
   128
 43
0.0
 10
0.2160315795618453
 20
0.2423683589578792
 10
0.2350735171772885
 20
0.2428669953588633
 10
0.2823890487663607
 20
0.2441059989210129
 10
0.3297045795953158
 20
0.245345031512154
  0
LWPOLYLINE
  5
15F6
330
15D4
100
AcDbEntity
  8
SANINDUSA
100
AcDbPolyline
 90
       39
 70
   128
 43
0.0
 10
0.3802172973057327
 20
0.2650481157520005
 10
0.3801021919143318
 20
0.2651283760900878
 10
0.3797900088164488
 20
0.2653493343301778
 10
0.3793231103455537
 20
0.2656709454673938
 10
0.3786502675554129
 20
0.2661208420845151
 10
0.3777720408213554
 20
0.2666001777135932
 10
0.3765855383772316
 20
0.2671675423282795
 10
0.3752990505470666
 20
0.2676686031573337
 10
0.3734416772360896
 20
0.2682652852744638
 10
0.3715300813910971
 20
0.2687719645321386
 10
0.3695211701009805
 20
0.2692330209838644
 10
0.3673431839307295
 20
0.2696742188233304
 10
0.3650536797183986
 20
0.2700639037763335
 10
0.3603629695824122
 20
0.2706403021522556
 10
0.3555457813520445
 20
0.2710840572858666
 10
0.350435045208269
 20
0.271487145194016
 10
0.3446963301619701
 20
0.2719227505240883
 10
0.3385437257713999
 20
0.272290741219
 10
0.3334640339957843
 20
0.2724513376408368
 10
0.3283925985362566
 20
0.2724931280803594
 10
0.3232064878017911
 20
0.2724497407945887
 10
0.3173047066837819
 20
0.272544197368
 10
0.3114472539700785
 20
0.2725230307884942
 10
0.3058865284157332
 20
0.272333634748
 10
0.2980041452240449
 20
0.2717812999916873
 10
0.2902607837742312
 20
0.2710117512475006
 10
0.2823563506499193
 20
0.2701064374665623
 10
0.2742762486477318
 20
0.26910417214
 10
0.264075359542876
 20
0.2676986595019957
 10
0.2547193217713572
 20
0.2660798137299793
 10
0.2449556276191515
 20
0.2643926810439893
 10
0.2350531133322931
 20
0.262707014495237
 10
0.2251105097439745
 20
0.2610615187950111
 10
0.2151822908610654
 20
0.2595013159540969
 10
0.2053585738490756
 20
0.2580959306864645
 10
0.1916813900201964
 20
0.2563626496617281
 10
0.1780586926800015
 20
0.2550183386070307
 10
0.1644541480413136
 20
0.2541075933824101
 10
0.1508627430527326
 20
0.2536811671890002
  0
LWPOLYLINE
  5
15F7
330
15D4
100
AcDbEntity
  8
SANINDUSA
100
AcDbPolyline
 90
       25
 70
   128
 43
0.0
 10
0.3292151742949613
 20
0.2453351319575313
 10
0.3291705151569329
 20
0.2453342295000005
 10
0.3276876007813996
 20
0.2453066409863334
 10
0.3258273199027326
 20
0.245273912772667
 10
0.3236681597180655
 20
0.2452380955703336
 10
0.3211181757693998
 20
0.2451981625410002
 10
0.3182916077337325
 20
0.2451569028950002
 10
0.3149532758667328
 20
0.2451106967760007
 10
0.3109689718770665
 20
0.2450575728720003
 10
0.3040062290120784
 20
0.2449716194210072
 10
0.2962997027027563
 20
0.2448828797762348
 10
0.2883986406731242
 20
0.2447960340710722
 10
0.2801517837320784
 20
0.2447090414001445
 10
0.2712117712550662
 20
0.2446165252340001
 10
0.2633944754742015
 20
0.2445360164177782
 10
0.2543662534105988
 20
0.2444403139490333
 10
0.2445144420587326
 20
0.2443424596835007
 10
0.2346168507359914
 20
0.2442541755065497
 10
0.2246295309188554
 20
0.2441711859664446
 10
0.2146597956673986
 20
0.2440917551036671
 10
0.2021730169008583
 20
0.2439928179952903
 10
0.1900538190256339
 20
0.2438982627078644
 10
0.1778920548437509
 20
0.2437920181955792
 10
0.1657784397810894
 20
0.2436672845957173
 10
0.1537424693127332
 20
0.243512954162
  0
LINE
  5
15F8
330
15D4
100
AcDbEntity
  8
SANINDUSA
100
AcDbLine
 10
0.1108320029572076
 20
0.3760000000002356
 30
0.0
 11
0.1113251400448564
 21
0.3618784049652413
 31
0.0
  0
LINE
  5
15F9
330
15D4
100
AcDbEntity
  8
SANINDUSA
100
AcDbLine
 10
0.1320373222205217
 20
0.3878432141597603
 30
0.0
 11
0.112834009225736
 21
0.3881970964321761
 31
0.0
  0
LINE
  5
15FA
330
15D4
100
AcDbEntity
  8
SANINDUSA
100
AcDbLine
 10
0.1213190483023629
 20
0.3622274000115533
 30
0.0
 11
0.1206817353657323
 21
0.3804776505160004
 31
0.0
  0
LWPOLYLINE
  5
15FB
330
15D4
100
AcDbEntity
  8
SANINDUSA
100
AcDbPolyline
 90
        6
 70
   128
 43
0.0
 10
0.1128340092601274
 20
0.3881970964315133
 10
0.1154732953221787
 20
0.3876974129367182
 10
0.1177984036124826
 20
0.3863522787609793
 10
0.1195471958088694
 20
0.3843133475789392
 10
0.1205225088575184
 20
0.3818104934142621
 10
0.1206817353632585
 20
0.3804776505868449
  0
LINE
  5
15FC
330
15D4
100
AcDbEntity
  8
SANINDUSA
100
AcDbLine
 10
0.1113251400448564
 20
0.3618784049652413
 30
0.0
 11
0.1213190483023629
 21
0.3622274000115533
 31
0.0
  0
LINE
  5
15FD
330
15D4
100
AcDbEntity
  8
SANINDUSA
100
AcDbLine
 10
0.1202032679899298
 20
0.3926808789981544
 30
0.0
 11
0.1203083085323988
 21
0.3926815573191704
 31
0.0
  0
LINE
  5
15FE
330
15D4
100
AcDbEntity
  8
SANINDUSA
100
AcDbLine
 10
0.1202032679701551
 20
0.3926808797780819
 30
0.0
 11
0.1202032209581364
 21
0.392682604102896
 31
0.0
  0
LINE
  5
15FF
330
15D4
100
AcDbEntity
  8
SANINDUSA
100
AcDbLine
 10
0.1203113266816206
 20
0.3926056578944008
 30
0.0
 11
0.1202055596006676
 21
0.3926049870646795
 31
0.0
  0
LINE
  5
1600
330
15D4
100
AcDbEntity
  8
SANINDUSA
100
AcDbLine
 10
0.1177861020549813
 20
0.4
 30
0.0
 11
0.1121729377307065
 21
0.4
 31
0.0
  0
LWPOLYLINE
  5
1601
330
15D4
100
AcDbEntity
  8
SANINDUSA
100
AcDbPolyline
 90
        3
 70
   128
 43
0.0
 10
0.1202032212586516
 20
0.3926826040843593
 10
0.1181662782987166
 20
0.3926849860504638
 10
0.1161154166857454
 20
0.392681801160972
  0
LWPOLYLINE
  5
1602
330
15D4
100
AcDbEntity
  8
SANINDUSA
100
AcDbPolyline
 90
        3
 70
   128
 43
0.0
 10
0.1161154159107321
 20
0.3926818052030001
 10
0.1181557815077179
 20
0.3926417249843354
 10
0.1202055596310993
 20
0.3926049870635069
  0
LWPOLYLINE
  5
1603
330
15D4
100
AcDbEntity
  8
SANINDUSA
100
AcDbPolyline
 90
        3
 70
   128
 43
0.0
 10
0.1161154159107321
 20
0.3926818052030001
 10
0.115421293342107
 20
0.3926897054966253
 10
0.1147280716127329
 20
0.3926976074859999
  0
LWPOLYLINE
  5
1604
330
15D4
100
AcDbEntity
  8
SANINDUSA
100
AcDbPolyline
 90
        3
 70
   128
 43
0.0
 10
0.1307360214379582
 20
0.3923302640971633
 10
0.1255114048800249
 20
0.3924681596611776
 10
0.1203113267993012
 20
0.3926056579646024
  0
LINE
  5
1605
330
15D4
100
AcDbEntity
  8
SANINDUSA
100
AcDbLine
 10
0.0733293414678212
 20
0.3889250958977391
 30
0.0
 11
0.0730911553637498
 21
0.3760000000000002
 31
0.0
  0
LINE
  5
1606
330
15D4
100
AcDbEntity
  8
SANINDUSA
100
AcDbLine
 10
0.0858167643421712
 20
0.3760000000000395
 30
0.0
 11
0.0863403693769431
 21
0.3610059173310748
 31
0.0
  0
LINE
  5
1607
330
15D4
100
AcDbEntity
  8
SANINDUSA
100
AcDbLine
 10
0.0730911553637498
 20
0.3760000000000002
 30
0.0
 11
0.1108320029572076
 21
0.3760000000001173
 31
0.0
  0
LINE
  5
1608
330
15D4
100
AcDbEntity
  8
SANINDUSA
100
AcDbLine
 10
0.0733293414678212
 20
0.3889250958977391
 30
0.0
 11
0.1128340092339226
 21
0.3881970964319965
 31
0.0
  0
LINE
  5
1609
330
15D4
100
AcDbEntity
  8
SANINDUSA
100
AcDbLine
 10
0.1122848764424384
 20
0.334395157230536
 30
0.0
 11
0.1150751225640556
 21
0.2544929824309366
 31
0.0
  0
LINE
  5
160A
330
15D4
100
AcDbEntity
  8
SANINDUSA
100
AcDbLine
 10
0.1250691012136053
 20
0.2548399595541707
 30
0.0
 11
0.1222787846806727
 21
0.334744152276175
 31
0.0
  0
LINE
  5
160B
330
15D4
100
AcDbEntity
  8
SANINDUSA
100
AcDbLine
 10
0.1250690307462548
 20
0.2548419774746185
 30
0.0
 11
0.1250054310610062
 21
0.2566632335899749
 31
0.0
  0
LWPOLYLINE
  5
160C
330
15D4
100
AcDbEntity
  8
SANINDUSA
100
AcDbPolyline
 90
        9
 70
   128
 43
0.0
 10
0.1250054042786633
 20
0.2566640005565324
 10
0.1253417037479971
 20
0.2539929456749911
 10
0.1262135635884942
 20
0.2512816430295323
 10
0.1276495677108414
 20
0.2486898719937608
 10
0.1296132478636378
 20
0.246388975618546
 10
0.1320005700881211
 20
0.2445286747371921
 10
0.1346571845499989
 20
0.2432063607540664
 10
0.1374099109052167
 20
0.242451193648144
 10
0.1400998788131631
 20
0.2422279969493161
  0
LWPOLYLINE
  5
160D
330
15D4
100
AcDbEntity
  8
SANINDUSA
100
AcDbPolyline
 90
       18
 70
   128
 43
0.0
 10
0.1250691013497953
 20
0.2548399595589456
 10
0.1252186217969529
 20
0.253190014443934
 10
0.1253628394951397
 20
0.2523674767718376
 10
0.1255493895852999
 20
0.2515666661543582
 10
0.1260881245310395
 20
0.2499101221942317
 10
0.1267754300995727
 20
0.2484027200290893
 10
0.1276247284283681
 20
0.2469802801182812
 10
0.1286808825071557
 20
0.2455953640850487
 10
0.1298291295791591
 20
0.2443988228515496
 10
0.1304559541963761
 20
0.2438458099369859
 10
0.1311022970121792
 20
0.2433361734344356
 10
0.1325585142803629
 20
0.242377490478948
 10
0.1340390882225597
 20
0.241627512097611
 10
0.1348141949778074
 20
0.2413127562768603
 10
0.1355933733874144
 20
0.241045475361243
 10
0.1372863105974477
 20
0.2406224243018539
 10
0.1388490310679867
 20
0.2404114818583139
 10
0.1404430358615332
 20
0.2403661277064225
  0
LINE
  5
160E
330
15D4
100
AcDbEntity
  8
SANINDUSA
100
AcDbLine
 10
0.1404424534118675
 20
0.2403890106668792
 30
0.0
 11
0.1450522386414127
 21
0.2405097003950289
 31
0.0
  0
LINE
  5
160F
330
15D4
100
AcDbEntity
  8
SANINDUSA
100
AcDbLine
 10
0.1401000231267324
 20
0.2422272135089997
 30
0.0
 11
0.1403571303027388
 21
0.2408313642761527
 31
0.0
  0
LINE
  5
1610
330
15D4
100
AcDbEntity
  8
SANINDUSA
100
AcDbLine
 10
0.1222787846806727
 20
0.334744152276175
 30
0.0
 11
0.1122848764424384
 21
0.334395157230536
 31
0.0
  0
LINE
  5
1611
330
15D4
100
AcDbEntity
  8
SANINDUSA
100
AcDbLine
 10
0.0873001057745251
 20
0.3335226695963695
 30
0.0
 11
0.0900903518961423
 21
0.2536204947967701
 31
0.0
  0
LINE
  5
1612
330
15D4
100
AcDbEntity
  8
SANINDUSA
100
AcDbLine
 10
0.1000207247313597
 20
0.255788903549294
 30
0.0
 11
0.1001711265149515
 21
0.2525836685485763
 31
0.0
  0
LINE
  5
1613
330
15D4
100
AcDbEntity
  8
SANINDUSA
100
AcDbLine
 10
0.0900903518961423
 20
0.2536204947967701
 30
0.0
 11
0.0902804305958853
 21
0.2512946598146567
 31
0.0
  0
LINE
  5
1614
330
15D4
100
AcDbEntity
  8
SANINDUSA
100
AcDbLine
 10
0.1000207247313597
 20
0.255788903549294
 30
0.0
 11
0.095822859780667
 21
0.3760000000000707
 31
0.0
  0
LINE
  5
1615
330
15D4
100
AcDbEntity
  8
SANINDUSA
100
AcDbLine
 10
0.0863403693769431
 20
0.3610059173310748
 30
0.0
 11
0.0873001057745251
 21
0.3335226695963695
 31
0.0
  0
LINE
  5
1616
330
15D4
100
AcDbEntity
  8
SANINDUSA
100
AcDbLine
 10
0.1113251400448564
 20
0.3618784049652413
 30
0.0
 11
0.1122848764424384
 21
0.334395157230536
 31
0.0
  0
LINE
  5
1617
330
15D4
100
AcDbEntity
  8
SANINDUSA
100
AcDbLine
 10
0.1213190483023629
 20
0.3622274000115533
 30
0.0
 11
0.1222787846806727
 21
0.334744152276175
 31
0.0
  0
LWPOLYLINE
  5
1618
330
15D4
100
AcDbEntity
  8
SANINDUSA
100
AcDbPolyline
 90
        4
 70
   128
 43
0.0
 10
0.0243185326114076
 20
0.3760000000000002
 10
0.0243573533015797
 20
0.3700502769458416
 10
0.0243805121156902
 20
0.3665252980350215
 10
0.0243805125075755
 20
0.366525238534
  0
LINE
  5
1619
330
15D4
100
AcDbEntity
  8
SANINDUSA
100
AcDbLine
 10
0.0280000000017321
 20
0.3759999999881074
 30
0.0
 11
0.0280000000017321
 21
0.3649488476493024
 31
0.0
  0
LINE
  5
161A
330
15D4
100
AcDbEntity
  8
SANINDUSA
100
AcDbLine
 10
0.0280000000017321
 20
0.3649488476493024
 30
0.0
 11
0.0280000000017321
 21
0.364728118580432
 31
0.0
  0
LINE
  5
161B
330
15D4
100
AcDbEntity
  8
SANINDUSA
100
AcDbLine
 10
0.0380852129008963
 20
0.3760000000000002
 30
0.0
 11
0.0383352829219075
 21
0.3895699730063222
 31
0.0
  0
LINE
  5
161C
330
15D4
100
AcDbEntity
  8
SANINDUSA
100
AcDbLine
 10
0.0178853029337324
 20
0.4
 30
0.0
 11
0.007000000001733
 21
0.4
 31
0.0
  0
LWPOLYLINE
  5
161D
330
15D4
100
AcDbEntity
  8
SANINDUSA
100
AcDbPolyline
 90
        5
 70
   128
 43
0.0
 10
0.0069999998529556
 20
0.4
 10
0.0096480446793248
 20
0.3995490303606402
 10
0.0119975425417397
 20
0.3982469647479843
 10
0.0137836052942998
 20
0.3962406012824329
 10
0.0147963158618382
 20
0.3937937276845787
  0
LINE
  5
161E
330
15D4
100
AcDbEntity
  8
SANINDUSA
100
AcDbLine
 10
0.0000000000017326
 20
0.4
 30
0.0
 11
0.0000000000017326
 21
0.3760000000000002
 31
0.0
  0
LINE
  5
161F
330
15D4
100
AcDbEntity
  8
SANINDUSA
100
AcDbLine
 10
0.0000000000017326
 20
0.3758847999998073
 30
0.0
 11
0.0000000000017326
 21
0.3658412210898803
 31
0.0
  0
LINE
  5
1620
330
15D4
100
AcDbEntity
  8
SANINDUSA
100
AcDbLine
 10
0.0000000000017326
 20
0.4
 30
0.0
 11
0.0069999998198318
 21
0.4
 31
0.0
  0
LWPOLYLINE
  5
1621
330
15D4
100
AcDbEntity
  8
SANINDUSA
100
AcDbPolyline
 90
        5
 70
   128
 43
0.0
 10
0.0147963158618382
 20
0.3937937276845787
 10
0.015442079378023
 20
0.3922440342090954
 10
0.0165643976326453
 20
0.3909954501611787
 10
0.0180367377458742
 20
0.3901887439262214
 10
0.019576887878668
 20
0.3899156562468442
  0
LINE
  5
1622
330
15D4
100
AcDbEntity
  8
SANINDUSA
100
AcDbLine
 10
0.0000000000017326
 20
0.3760000000000002
 30
0.0
 11
0.0380852129008963
 21
0.3760000000000002
 31
0.0
  0
LINE
  5
1623
330
15D4
100
AcDbEntity
  8
SANINDUSA
100
AcDbLine
 10
0.019576887878668
 20
0.3899156562468442
 30
0.0
 11
0.0383352829219075
 21
0.3895699730063222
 31
0.0
  0
LWPOLYLINE
  5
1624
330
15D4
100
AcDbEntity
  8
SANINDUSA
100
AcDbPolyline
 90
        7
 70
   128
 43
0.0
 10
0.0247166239094213
 20
0.3054357275109749
 10
0.0248847489608875
 20
0.3015481454117162
 10
0.0253571925112988
 20
0.2976591227031451
 10
0.0261942637335619
 20
0.2935583515274431
 10
0.0273680969101815
 20
0.2895379970082104
 10
0.0289189797870063
 20
0.2855162225447338
 10
0.0308062813311995
 20
0.2816376211038403
  0
LWPOLYLINE
  5
1625
330
15D4
100
AcDbEntity
  8
SANINDUSA
100
AcDbPolyline
 90
        5
 70
   128
 43
0.0
 10
0.0280000000017321
 20
0.3058468053851903
 10
0.0283171012455705
 20
0.3003963958847999
 10
0.0293192939167625
 20
0.2947890890034705
 10
0.0310762133709966
 20
0.289122542530954
 10
0.0336450494040355
 20
0.2835136895913274
  0
LWPOLYLINE
  5
1626
330
15D4
100
AcDbEntity
  8
SANINDUSA
100
AcDbPolyline
 90
        5
 70
   128
 43
0.0
 10
0.0243805125075755
 20
0.366525238534
 10
0.0243805129003727
 20
0.3665251790329603
 10
0.0244191353504675
 20
0.3605751683284882
 10
0.0245606039244262
 20
0.3367788774028748
 10
0.0247166239094213
 20
0.3054357275109749
  0
LINE
  5
1627
330
15D4
100
AcDbEntity
  8
SANINDUSA
100
AcDbLine
 10
0.0280000000017321
 20
0.3647018685804324
 30
0.0
 11
0.0280000000017321
 21
0.3058468053851903
 31
0.0
  0
LINE
  5
1628
330
15D4
100
AcDbEntity
  8
SANINDUSA
100
AcDbLine
 10
0.1121729384409252
 20
0.4
 30
0.0
 11
0.0178853029337324
 21
0.4
 31
0.0
  0
LINE
  5
1629
330
15D4
100
AcDbEntity
  8
SANINDUSA
100
AcDbLine
 10
0.0730911553637498
 20
0.3760000000000002
 30
0.0
 11
0.0380852129008963
 21
0.3760000000000002
 31
0.0
  0
LINE
  5
162A
330
15D4
100
AcDbEntity
  8
SANINDUSA
100
AcDbLine
 10
0.0383352829219075
 20
0.3895699730063222
 30
0.0
 11
0.0733293414678212
 21
0.3889250958977391
 31
0.0
  0
LWPOLYLINE
  5
162B
330
15D4
100
AcDbEntity
  8
SANINDUSA
100
AcDbPolyline
 90
        8
 70
   128
 43
0.0
 10
0.0771911665479854
 20
0.0473995212561812
 10
0.0772819065030331
 20
0.0474640266190852
 10
0.0774242631824609
 20
0.0476351141004733
 10
0.077520369324775
 20
0.0478626721156184
 10
0.0775666052969825
 20
0.0481381301769409
 10
0.0775612297197483
 20
0.0484511137437244
 10
0.0775044450527298
 20
0.0487898349570787
 10
0.077398389969369
 20
0.049141536604518
  0
LWPOLYLINE
  5
162C
330
15D4
100
AcDbEntity
  8
SANINDUSA
100
AcDbPolyline
 90
        5
 70
   128
 43
0.0
 10
0.0812999415149898
 20
0.0510770259798312
 10
0.0802624726322449
 20
0.0506718288984405
 10
0.0792694026412392
 20
0.050204780809778
 10
0.0783118734006257
 20
0.0496882313761637
 10
0.077398389969369
 20
0.049141536604518
  0
LWPOLYLINE
  5
162D
330
15D4
100
AcDbEntity
  8
SANINDUSA
100
AcDbPolyline
 90
        4
 70
   128
 43
0.0
 10
0.0811064770223902
 20
0.049173108297482
 10
0.079436392277828
 20
0.0485426977104896
 10
0.0776664169217475
 20
0.0476650456168545
 10
0.0771924880535221
 20
0.04739519167467
  0
LINE
  5
162E
330
15D4
100
AcDbEntity
  8
SANINDUSA
100
AcDbLine
 10
0.0659524845087322
 20
0.0616282760094089
 30
0.0
 11
0.0659619912765265
 21
0.060891902985847
 31
0.0
  0
LINE
  5
162F
330
15D4
100
AcDbEntity
  8
SANINDUSA
100
AcDbLine
 10
0.075783941168686
 20
0.0486127265404446
 30
0.0
 11
0.069447144364749
 21
0.0483565252698497
 31
0.0
  0
LINE
  5
1630
330
15D4
100
AcDbEntity
  8
SANINDUSA
100
AcDbLine
 10
0.0659524845087322
 20
0.0642460090292252
 30
0.0
 11
0.0659524845087322
 21
0.0616282760094089
 31
0.0
  0
LWPOLYLINE
  5
1631
330
15D4
100
AcDbEntity
  8
SANINDUSA
100
AcDbPolyline
 90
        4
 70
   128
 43
0.0
 10
0.077398389969369
 20
0.049141536604518
 10
0.0769659138534348
 20
0.0489070591640336
 10
0.076382108845753
 20
0.0486990761979155
 10
0.075783941168686
 20
0.0486127265404446
  0
LINE
  5
1632
330
15D4
100
AcDbEntity
  8
SANINDUSA
100
AcDbLine
 10
0.067516943358155
 20
0.0463577436158113
 30
0.0
 11
0.0744887469376567
 21
0.0466012043615604
 31
0.0
  0
LWPOLYLINE
  5
1633
330
15D4
100
AcDbEntity
  8
SANINDUSA
100
AcDbPolyline
 90
        9
 70
   128
 43
0.0
 10
0.0744887469376567
 20
0.0466012043615604
 10
0.0747506159576085
 20
0.0466479548036097
 10
0.075000019943077
 20
0.0467680681730178
 10
0.0752275855775099
 20
0.0469570302651255
 10
0.0754247602921737
 20
0.0472077393429549
 10
0.075584133696201
 20
0.0475107730408445
 10
0.0756997160803121
 20
0.0478547424839491
 10
0.0757671635272595
 20
0.048226720314799
 10
0.075783941168686
 20
0.0486127265404446
  0
ARC
  5
1634
330
15D4
100
AcDbEntity
  8
SANINDUSA
100
AcDbCircle
 10
0.0674471443647485
 20
0.0483565252698497
 30
0.0
 40
0.0020000000000001
100
AcDbArc
 50
272.0000000000622
 51
1.000000000185434
  0
LINE
  5
1635
330
15D4
100
AcDbEntity
  8
SANINDUSA
100
AcDbLine
 10
0.0694468397550611
 20
0.0483914300827263
 30
0.0
 11
0.0692716798385686
 21
0.0584263349772027
 31
0.0
  0
LWPOLYLINE
  5
1636
330
15D4
100
AcDbEntity
  8
SANINDUSA
100
AcDbPolyline
 90
        5
 70
   128
 43
0.0
 10
0.0771841194299521
 20
0.0474147469325226
 10
0.077055547384964
 20
0.0473269001428946
 10
0.075738462972007
 20
0.0467953746912224
 10
0.0745363187811256
 20
0.0466034517618732
 10
0.0743580958838504
 20
0.0466036039093911
  0
LWPOLYLINE
  5
1637
330
15D4
100
AcDbEntity
  8
SANINDUSA
100
AcDbPolyline
 90
        7
 70
   128
 43
0.0
 10
0.0811028094871085
 20
0.0491787973833346
 10
0.0812073208234642
 20
0.0492371400248732
 10
0.0813453242358344
 20
0.0494322846241562
 10
0.0814269376767618
 20
0.0497367900109634
 10
0.0814467568282089
 20
0.0501304923013169
 10
0.0814034692960866
 20
0.0505873211278322
 10
0.0812999415149898
 20
0.0510770259798312
  0
LWPOLYLINE
  5
1638
330
15D4
100
AcDbEntity
  8
SANINDUSA
100
AcDbPolyline
 90
        7
 70
   128
 43
0.0
 10
0.0900995505640072
 20
0.050960397594281
 10
0.0900890113917876
 20
0.0509801797933074
 10
0.0900646936986516
 20
0.0511366268944335
 10
0.09003762419846
 20
0.0514373199391287
 10
0.0900099453005851
 20
0.0518584606454419
 10
0.0899838476450441
 20
0.0523667179289123
 10
0.0899613967247888
 20
0.052921865883589
  0
LWPOLYLINE
  5
1639
330
15D4
100
AcDbEntity
  8
SANINDUSA
100
AcDbPolyline
 90
        7
 70
   128
 43
0.0
 10
0.0899613967247888
 20
0.052921865883589
 10
0.0885329279239261
 20
0.052824825796892
 10
0.0871041244526214
 20
0.0526351032915022
 10
0.0856184323135995
 20
0.0523455576316553
 10
0.0841574194423697
 20
0.051978713600513
 10
0.0827087576574809
 20
0.0515471462993998
 10
0.0812999415149898
 20
0.0510770259798312
  0
LWPOLYLINE
  5
163A
330
15D4
100
AcDbEntity
  8
SANINDUSA
100
AcDbPolyline
 90
        6
 70
   128
 43
0.0
 10
0.0901007741788283
 20
0.0509576261614098
 10
0.0879758057973027
 20
0.0507901809839672
 10
0.0858373536902912
 20
0.0504450533790771
 10
0.0836589423747501
 20
0.049933624035827
 10
0.0814402861560973
 20
0.0492855047507192
 10
0.0811070679002194
 20
0.0491772268650607
  0
LINE
  5
163B
330
15D4
100
AcDbEntity
  8
SANINDUSA
100
AcDbLine
 10
0.0659524845087322
 20
0.2178753553581441
 30
0.0
 11
0.0659524845087322
 21
0.0642460090292258
 31
0.0
  0
LWPOLYLINE
  5
163C
330
15D4
100
AcDbEntity
  8
SANINDUSA
100
AcDbPolyline
 90
        5
 70
   128
 43
0.0
 10
0.0603913639681514
 20
0.2268345992404181
 10
0.0617337314762381
 20
0.2237529805637564
 10
0.0625581526693623
 20
0.220404733416558
 10
0.0627385393585541
 20
0.2188730444544388
 10
0.0628009332050783
 20
0.2173245790983902
  0
LWPOLYLINE
  5
163D
330
15D4
100
AcDbEntity
  8
SANINDUSA
100
AcDbPolyline
 90
        5
 70
   128
 43
0.0
 10
0.063049867057116
 20
0.0635618669671305
 10
0.063049864994432
 20
0.0635618086889508
 10
0.0629871010033821
 20
0.0614104765179911
 10
0.0629669587941112
 20
0.0597128660064516
 10
0.0629864042249085
 20
0.0582068483108378
  0
LINE
  5
163E
330
15D4
100
AcDbEntity
  8
SANINDUSA
100
AcDbLine
 10
0.0000000000017326
 20
0.0701571259002117
 30
0.0
 11
0.0000000000017315
 21
0.0560073145315863
 31
0.0
  0
LINE
  5
163F
330
15D4
100
AcDbEntity
  8
SANINDUSA
100
AcDbLine
 10
0.0000000000017326
 20
0.056007314553051
 30
0.0
 11
0.0000000000017326
 21
0.0439999999999998
 31
0.0
  0
LINE
  5
1640
330
15D4
100
AcDbEntity
  8
SANINDUSA
100
AcDbLine
 10
0.0000000000017326
 20
0.1901771870804402
 30
0.0
 11
0.0000000000017326
 21
0.0701568326107713
 31
0.0
  0
LWPOLYLINE
  5
1641
330
15D4
100
AcDbEntity
  8
SANINDUSA
100
AcDbPolyline
 90
        6
 70
   128
 43
0.0
 10
0.0628009332050783
 20
0.2173245790983902
 10
0.062810662489319
 20
0.2114270765996389
 10
0.0628464525279594
 20
0.187845515361422
 10
0.0629138345781382
 20
0.1407406235814347
 10
0.0629918070455301
 20
0.0937927720731443
 10
0.0630500211699371
 20
0.0635620170984862
  0
LINE
  5
1642
330
15D4
100
AcDbEntity
  8
SANINDUSA
100
AcDbLine
 10
0.0675169433581562
 20
0.0463577436158113
 30
0.0
 11
0.0000000000017326
 21
0.0439999999999998
 31
0.0
  0
LINE
  5
1643
330
15D4
100
AcDbEntity
  8
SANINDUSA
100
AcDbLine
 10
0.0692716798385686
 20
0.0584263349772027
 30
0.0
 11
0.0000000000017326
 21
0.056007314553051
 31
0.0
  0
LWPOLYLINE
  5
1644
330
15D4
100
AcDbEntity
  8
SANINDUSA
100
AcDbPolyline
 90
        5
 70
   128
 43
0.0
 10
0.0629864042249085
 20
0.0582068483108378
 10
0.0641269362402534
 20
0.0584174714638857
 10
0.0650919254122653
 20
0.0590009609398271
 10
0.0657359597701498
 20
0.059869392068527
 10
0.0659619912765265
 20
0.060891902985847
  0
LWPOLYLINE
  5
1645
330
15D4
100
AcDbEntity
  8
SANINDUSA
100
AcDbPolyline
 90
        5
 70
   128
 43
0.0
 10
0.0631900135246269
 20
0.2288043269168429
 10
0.064447838577612
 20
0.2260576382580155
 10
0.0653075205334926
 20
0.223283900849467
 10
0.0657975468015423
 20
0.220540524928291
 10
0.0659524845087322
 20
0.2178753553581441
  0
LINE
  5
1646
330
15D4
100
AcDbEntity
  8
SANINDUSA
100
AcDbLine
 10
0.0000000000017326
 20
0.3658412210902981
 30
0.0
 11
0.0
 21
0.1901771869124059
 31
0.0
  0
LWPOLYLINE
  5
1647
330
15D4
100
AcDbEntity
  8
SANINDUSA
100
AcDbPolyline
 90
        6
 70
   128
 43
0.0
 10
0.0308062813312006
 20
0.2816376211038403
 10
0.0336432379240375
 20
0.2763876088424661
 10
0.0393125307473883
 20
0.2658954060280189
 10
0.0449769815462582
 20
0.2554128494632732
 10
0.0526911120404122
 20
0.2411205207159105
 10
0.0603913639681514
 20
0.2268345992404181
  0
LINE
  5
1648
330
15D4
100
AcDbEntity
  8
SANINDUSA
100
AcDbLine
 10
0.0336450494040355
 20
0.2835136895913274
 30
0.0
 11
0.0631900135246258
 21
0.2288043269168429
 31
0.0
  0
LWPOLYLINE
  5
1649
330
15D4
100
AcDbEntity
  8
SANINDUSA
100
AcDbPolyline
 90
       13
 70
   128
 43
0.0
 10
0.1001711265149515
 20
0.2525836685485763
 10
0.1004145558278287
 20
0.2498974472773654
 10
0.1008578811346319
 20
0.2473689658883251
 10
0.1014440902628712
 20
0.2448525238241251
 10
0.1027525179264444
 20
0.2408292690482944
 10
0.1046018074312383
 20
0.2367733976409801
 10
0.1068862832098512
 20
0.2329472632750014
 10
0.1096614561498439
 20
0.2293082284250841
 10
0.1125105956070547
 20
0.2263392569174152
 10
0.1144344164340805
 20
0.2246419755193506
 10
0.1164625224168754
 20
0.2230428290376352
 10
0.1199962897952253
 20
0.2207164161950618
 10
0.1236696666925832
 20
0.2188556828800921
  0
LWPOLYLINE
  5
164A
330
15D4
100
AcDbEntity
  8
SANINDUSA
100
AcDbPolyline
 90
        7
 70
   128
 43
0.0
 10
0.0902804305958853
 20
0.2512946598146567
 10
0.0911748528375756
 20
0.2443579266327629
 10
0.0940695977213932
 20
0.2354733016405396
 10
0.0985497926145706
 20
0.227300419496139
 10
0.1044835845723514
 20
0.2200806371914086
 10
0.1116299886328659
 20
0.2141044639959796
 10
0.119786132021693
 20
0.2095416208210213
  0
LWPOLYLINE
  5
164B
330
15D4
100
AcDbEntity
  8
SANINDUSA
100
AcDbPolyline
 90
        8
 70
   128
 43
0.0
 10
0.1150751675501112
 20
0.2544916927157646
 10
0.1156702180096249
 20
0.249876751276463
 10
0.1171155562943227
 20
0.2454406820676576
 10
0.1193481794869126
 20
0.2413678757141486
 10
0.1223137470858308
 20
0.2377596008325071
 10
0.1258750169499058
 20
0.2347814924967406
 10
0.1299519845110376
 20
0.232500688601566
 10
0.1343552508722916
 20
0.2310238268650693
  0
LWPOLYLINE
  5
164C
330
15D4
100
AcDbEntity
  8
SANINDUSA
100
AcDbPolyline
 90
        3
 70
   128
 43
0.0
 10
0.2232498072572298
 20
0.0575663084067884
 10
0.1912886901543368
 20
0.0564528055222473
 10
0.0899613967247888
 20
0.052921865883589
  0
LWPOLYLINE
  5
164D
330
15D4
100
AcDbEntity
  8
SANINDUSA
100
AcDbPolyline
 90
        3
 70
   128
 43
0.0
 10
0.2233879682895986
 20
0.0556048126348503
 10
0.2099054596804501
 20
0.0551351342521616
 10
0.0900995899716622
 20
0.0509602950528142
  0
LINE
  5
164E
330
15D4
100
AcDbEntity
  8
SANINDUSA
100
AcDbLine
 10
0.1478110927159844
 20
0.2071905804432407
 30
0.0
 11
0.1236696666925832
 21
0.2188556828800921
 31
0.0
  0
LINE
  5
164F
330
15D4
100
AcDbEntity
  8
SANINDUSA
100
AcDbLine
 10
0.1478110927159832
 20
0.1960000000000002
 30
0.0
 11
0.119786132021693
 21
0.2095416208210213
 31
0.0
  0
LINE
  5
1650
330
15D4
100
AcDbEntity
  8
SANINDUSA
100
AcDbLine
 10
0.1343552508722916
 20
0.2310238268650693
 30
0.0
 11
0.1578110927159844
 21
0.2249325232125028
 31
0.0
  0
LWPOLYLINE
  5
1651
330
15D4
100
AcDbEntity
  8
SANINDUSA
100
AcDbPolyline
 90
       25
 70
   128
 43
0.0
 10
0.1320373222205148
 20
0.3878432141593948
 10
0.136653613739561
 20
0.387585475969758
 10
0.1413179461181039
 20
0.3870429647066226
 10
0.1460308009917912
 20
0.3862851631331386
 10
0.1507823178833882
 20
0.3853638417760243
 10
0.1531091267539409
 20
0.3848679930402614
 10
0.1555809762879585
 20
0.3843150207621204
 10
0.1579017177284686
 20
0.3837748914538998
 10
0.1604178771673208
 20
0.3831697662759166
 10
0.1626690401274618
 20
0.3826140072850092
 10
0.1652919406388196
 20
0.3819519991077482
 10
0.1665145102494352
 20
0.3816387961856651
 10
0.1677424060835904
 20
0.38132164239313
 10
0.1683822326177904
 20
0.3811551662066324
 10
0.1689700174588961
 20
0.38100090057334
 10
0.1693233238946345
 20
0.3809073063011101
 10
0.16958402355011
 20
0.3808373314135281
 10
0.1698904603383107
 20
0.3807522356633598
 10
0.1700427567531495
 20
0.3807059117854181
 10
0.1701177545721259
 20
0.3806788883057675
 10
0.1701539055670446
 20
0.3806619083451506
 10
0.1701737515443358
 20
0.380647541427727
 10
0.1701788832957959
 20
0.3806406837342371
 10
0.170180251407487
 20
0.3806373363699663
 10
0.1701808210416448
 20
0.3806340433409895
  0
LWPOLYLINE
  5
1652
330
15D4
100
AcDbEntity
  8
SANINDUSA
100
AcDbPolyline
 90
       14
 70
   128
 43
0.0
 10
0.1508501807217317
 20
0.2536809771669999
 10
0.1472247089641883
 20
0.2539816726232345
 10
0.1450698275217394
 20
0.2541777421652375
 10
0.1430474670127319
 20
0.2543669744470003
 10
0.1402786770646696
 20
0.2546251733311249
 10
0.1377907006612327
 20
0.2548485009030003
 10
0.1348399719243071
 20
0.2550932296164075
 10
0.1323103223765656
 20
0.2552772170692407
 10
0.1303755106202322
 20
0.2553572754735001
 10
0.1287704096544667
 20
0.2554056578519817
 10
0.1274455123490907
 20
0.255466411148667
 10
0.1263837533577327
 20
0.2555840514444003
 10
0.1253835129551078
 20
0.2559012787576751
 10
0.1250054042777333
 20
0.2566640005609997
  0
LWPOLYLINE
  5
1653
330
15D4
100
AcDbEntity
  8
SANINDUSA
100
AcDbPolyline
 90
       16
 70
   128
 43
0.0
 10
0.1206817344790295
 20
0.3804776765949777
 10
0.1210876395906212
 20
0.380574453757182
 10
0.1222934784358767
 20
0.3806725339848856
 10
0.1242960831927394
 20
0.3807657810002559
 10
0.1270470721606193
 20
0.3808463581940237
 10
0.1305059050221598
 20
0.3809087416846819
 10
0.1346751712877517
 20
0.3809488563581562
 10
0.139449690976927
 20
0.3809627553053105
 10
0.1447737677584655
 20
0.38094898163589
 10
0.1506461748517563
 20
0.3809068246146819
 10
0.1558847192708822
 20
0.3808506396498655
 10
0.1613508328755938
 20
0.3807772040558535
 10
0.1663498172579409
 20
0.380699355406864
 10
0.1686057953898899
 20
0.3806614275561504
 10
0.1696060218963794
 20
0.3806441190935124
 10
0.1703942949502243
 20
0.380630281380761
  0
LINE
  5
1654
330
15D4
100
AcDbEntity
  8
SANINDUSA
100
AcDbLine
 10
0.1450522386414105
 20
0.2405097003950289
 30
0.0
 11
0.1578110927265891
 21
0.2302287853619714
 31
0.0
  0
LWPOLYLINE
  5
1655
330
15D4
100
AcDbEntity
  8
SANINDUSA
100
AcDbPolyline
 90
       20
 70
   128
 43
0.0
 10
0.2160315795618544
 20
0.2423683589578798
 10
0.2157273905615159
 20
0.2423688273801622
 10
0.2148266959833267
 20
0.2423704719500381
 10
0.2133309659010353
 20
0.2423723815914724
 10
0.2112857723135176
 20
0.2423730575125205
 10
0.2087131003984768
 20
0.2423705544140228
 10
0.2056479621939616
 20
0.2423625331736218
 10
0.200290056377678
 20
0.242334672122646
 10
0.1941555680859039
 20
0.2422796020552732
 10
0.1874998949381313
 20
0.2421892139826241
 10
0.1805980607316042
 20
0.2420577504569906
 10
0.1759575749949943
 20
0.2419451053583026
 10
0.1714091551276977
 20
0.2418136704541547
 10
0.1670276521875814
 20
0.2416654013625203
 10
0.1608764850690215
 20
0.2414170822808046
 10
0.1554977058940574
 20
0.2411563682208828
 10
0.152423645353374
 20
0.2409867443791143
 10
0.1498444670015238
 20
0.2408316973617912
 10
0.1477731055030938
 20
0.2406981484976035
 10
0.1450066616950801
 20
0.2405085071356928
  0
LWPOLYLINE
  5
1656
330
15D4
100
AcDbEntity
  8
SANINDUSA
100
AcDbPolyline
 90
       11
 70
   128
 43
0.0
 10
0.1537302828767326
 20
0.2435127786620001
 10
0.1520767493819324
 20
0.2434775827754004
 10
0.1509309127920665
 20
0.2434423804990001
 10
0.1498258749922115
 20
0.2434002727141876
 10
0.1487425988982318
 20
0.2433506246914999
 10
0.1465930985632326
 20
0.243223252011
 10
0.1446394543092322
 20
0.2430713460555
 10
0.142891036385065
 20
0.2428916208333334
 10
0.1414208519463318
 20
0.2426769026971999
 10
0.1404434272200569
 20
0.2424563608675248
 10
0.140099878819733
 20
0.2422279970479997
  0
LWPOLYLINE
  5
1657
330
15D4
100
AcDbEntity
  8
SANINDUSA
100
AcDbPolyline
 90
       17
 70
   128
 43
0.0
 10
0.17019666745422
 20
0.3806334240708077
 10
0.1701934191359805
 20
0.3806482881702812
 10
0.1701844645016877
 20
0.3806640142523247
 10
0.1701494401143646
 20
0.3806980521754668
 10
0.1698797453405564
 20
0.3808480684080535
 10
0.1695867204958142
 20
0.3809873641323259
 10
0.1691260687945544
 20
0.3811990361438035
 10
0.1683148444997028
 20
0.3815651301085035
 10
0.1668068566342959
 20
0.382234968446665
 10
0.1641172996014347
 20
0.3834019098593706
 10
0.1593678413889006
 20
0.3853626996534558
 10
0.1565267554676507
 20
0.3864612685914597
 10
0.1536486669310193
 20
0.3875070406603834
 10
0.1508056689475654
 20
0.3884655700299357
 10
0.1440367955515126
 20
0.3904003203470813
 10
0.137427977461
 20
0.3917201478243868
 10
0.1307360214379582
 20
0.3923302640971633
  0
LWPOLYLINE
  5
1658
330
15D4
100
AcDbEntity
  8
SANINDUSA
100
AcDbPolyline
 90
       16
 70
   128
 43
0.0
 10
0.5103853737321993
 20
0.39
 10
0.501198286442052
 20
0.3729741863306652
 10
0.4857040926181459
 20
0.3459176144678127
 10
0.4722326894152275
 20
0.323677262457146
 10
0.4582621195872242
 20
0.3017337808597051
 10
0.4438398900834864
 20
0.2801586714597795
 10
0.4289449687322508
 20
0.2589161919308742
 10
0.4114526692300456
 20
0.2351906564278591
 10
0.3933520755998483
 20
0.2118977725746214
 10
0.3779017349809635
 20
0.1929383778052619
 10
0.3620520470375254
 20
0.1743021665334015
 10
0.3446743536985332
 20
0.1547467403317592
 10
0.3268563095929358
 20
0.1355801751856143
 10
0.3125797075524872
 20
0.1208274443976882
 10
0.2980659183982652
 20
0.1063493583152922
 10
0.2708836033635817
 20
0.0806029509482971
  0
LWPOLYLINE
  5
1659
330
15D4
100
AcDbEntity
  8
SANINDUSA
100
AcDbPolyline
 90
        9
 70
   128
 43
0.0
 10
0.3869376692214019
 20
0.2576429417965426
 10
0.4026957861439599
 20
0.2719438086617493
 10
0.4180494204442472
 20
0.2870021562118938
 10
0.4328739461860062
 20
0.3027152110189457
 10
0.4470982104587108
 20
0.3190198148283116
 10
0.4609033211367797
 20
0.336159644699751
 10
0.4740398511820661
 20
0.353862735292962
 10
0.4865199579452338
 20
0.3721612263415227
 10
0.4976707292340893
 20
0.39
  0
LWPOLYLINE
  5
165A
330
15D4
100
AcDbEntity
  8
SANINDUSA
100
AcDbPolyline
 90
       16
 70
   128
 43
0.0
 10
0.523193395705232
 20
0.392678061760746
 10
0.5099388606631976
 20
0.3681143195460174
 10
0.4943209403300308
 20
0.3408416915767833
 10
0.4807281230656168
 20
0.3184008933745747
 10
0.4666376956805846
 20
0.2962691523053064
 10
0.4520915874780952
 20
0.2745087250613403
 10
0.4370644378229464
 20
0.2530776673605328
 10
0.4194264707757191
 20
0.2291545568897084
 10
0.4011771876298656
 20
0.2056703308247665
 10
0.3855873605550153
 20
0.1865397696812238
 10
0.369599248306339
 20
0.1677407978170555
 10
0.3520748104645247
 20
0.1480202374264593
 10
0.3341120896424865
 20
0.1286980460121128
 10
0.3197044777507096
 20
0.1138099361569732
 10
0.3050366168456208
 20
0.0991781573311994
 10
0.2777603094765391
 20
0.0733427227813581
  0
LWPOLYLINE
  5
165B
330
15D4
100
AcDbEntity
  8
SANINDUSA
100
AcDbPolyline
 90
        9
 70
   128
 43
0.0
 10
0.380217297290252
 20
0.2650481157382558
 10
0.3958319857944048
 20
0.2792188178936556
 10
0.4109088277598289
 20
0.2940056964810731
 10
0.4254665520901586
 20
0.3094359587540902
 10
0.4394335416149124
 20
0.3254456606440971
 10
0.4529909465265656
 20
0.3422779497218733
 10
0.4658906135954453
 20
0.3596618383100622
 10
0.4781460672278718
 20
0.3776309400849641
 10
0.4896933418454171
 20
0.396104031581383
  0
LINE
  5
165C
330
15D4
100
AcDbEntity
  8
SANINDUSA
100
AcDbLine
 10
0.4965604346605029
 20
0.4
 30
0.0
 11
0.1177861018963847
 21
0.4
 31
0.0
  0
LWPOLYLINE
  5
165D
330
15D4
100
AcDbEntity
  8
SANINDUSA
100
AcDbPolyline
 90
       31
 70
   128
 43
0.0
 10
0.4896933434971471
 20
0.3961040317999749
 10
0.4891766425169772
 20
0.3960850043689561
 10
0.4876309725022384
 20
0.3960305549134307
 10
0.4851385975616938
 20
0.3959526060943995
 10
0.4818998722444463
 20
0.3958806011667343
 10
0.4781536821327154
 20
0.3958129032871085
 10
0.473941856437258
 20
0.3957454454725143
 10
0.4667812149631073
 20
0.395645075460834
 10
0.4586504803622507
 20
0.3955465350635649
 10
0.4497414956125022
 20
0.3954528828328785
 10
0.4401636366478386
 20
0.3953413198338808
 10
0.4297599046119127
 20
0.3952086933483906
 10
0.4184987278563495
 20
0.3950681944035381
 10
0.4066519946551058
 20
0.394931750263396
 10
0.3943838043163339
 20
0.3948068850936284
 10
0.3817485153591906
 20
0.3946967279143939
 10
0.3688625206824577
 20
0.3945901954685996
 10
0.3556871549476352
 20
0.3944799747855541
 10
0.3421410996606016
 20
0.3943833791992484
 10
0.3264098705451988
 20
0.3942868720049217
 10
0.3106282314796738
 20
0.3942024565528368
 10
0.2948274012158447
 20
0.3941272171922975
 10
0.2790412078269764
 20
0.3940595880058811
 10
0.2633182781013374
 20
0.393997526205934
 10
0.2470820809762972
 20
0.3938990150933853
 10
0.230864951703071
 20
0.393792953474873
 10
0.2083255307129957
 20
0.3936357665490164
 10
0.1860051226315943
 20
0.3934679508278771
 10
0.1638491673649832
 20
0.3932112059195378
 10
0.1419626930982417
 20
0.3929475609503152
 10
0.1203083086187155
 20
0.392681557161336
  0
ENDBLK
  5
165F
330
15D4
100
AcDbEntity
  8
0
100
AcDbBlockEnd
  0
ENDSEC
  0
SECTION
  2
ENTITIES
  0
INSERT
  5
1571
330
1F
100
AcDbEntity
  8
cotas
100
AcDbBlockReference
  2
110450PL
 10
4476.297807096862
 20
1138.434445986887
 30
0.0
  0
INSERT
  5
15A9
330
1F
100
AcDbEntity
  8
cotas
100
AcDbBlockReference
  2
110450AL
 10
4476.787406714258
 20
1137.983103422078
 30
0.0
  0
INSERT
  5
15D3
330
1F
100
AcDbEntity
  8
cotas
100
AcDbBlockReference
  2
110450AF
 10
4477.828083509698
 20
1137.98841325257
 30
0.0
  0
INSERT
  5
1660
330
1F
100
AcDbEntity
  8
cotas
100
AcDbBlockReference
  2
110450CT
 10
4478.297779935178
 20
1137.983103422079
 30
0.0
  0
ENDSEC
  0
SECTION
  2
OBJECTS
  0
DICTIONARY
  5
C
330
0
100
AcDbDictionary
281
     1
  3
ACAD_COLOR
350
1666
  3
ACAD_GROUP
350
D
  3
ACAD_LAYOUT
350
1A
  3
ACAD_MATERIAL
350
1665
  3
ACAD_MLINESTYLE
350
17
  3
ACAD_PLOTSETTINGS
350
19
  3
ACAD_PLOTSTYLENAME
350
E
  3
ACAD_TABLESTYLE
350
1667
  3
ACDBHEADERROUNDTRIPXREC
350
167F
  3
AcDbVariableDictionary
350
3D
  3
ASE_INDEX_DICTIONARY
350
1661
  0
DICTIONARY
  5
1666
102
{ACAD_REACTORS
330
C
102
}
330
C
100
AcDbDictionary
281
     1
  0
DICTIONARY
  5
D
102
{ACAD_REACTORS
330
C
102
}
330
C
100
AcDbDictionary
281
     1
  0
DICTIONARY
  5
1A
102
{ACAD_REACTORS
330
C
102
}
330
C
100
AcDbDictionary
281
     1
  3
Layout1
350
1E
  3
Layout2
350
26
  3
Model
350
22
  0
DICTIONARY
  5
1665
102
{ACAD_REACTORS
330
C
102
}
330
C
100
AcDbDictionary
281
     1
  0
DICTIONARY
  5
17
102
{ACAD_REACTORS
330
C
102
}
330
C
100
AcDbDictionary
281
     1
  3
Standard
350
18
  0
DICTIONARY
  5
19
102
{ACAD_REACTORS
330
C
102
}
330
C
100
AcDbDictionary
281
     1
  0
ACDBDICTIONARYWDFLT
  5
E
102
{ACAD_REACTORS
330
C
102
}
330
C
100
AcDbDictionary
281
     1
  3
Normal
350
F
100
AcDbDictionaryWithDefault
340
F
  0
DICTIONARY
  5
1667
102
{ACAD_REACTORS
330
C
102
}
330
C
100
AcDbDictionary
281
     1
  3
Standard
350
1668
  0
DICTIONARY
  5
167F
102
{ACAD_REACTORS
330
C
102
}
330
C
100
AcDbDictionary
281
     1
  0
DICTIONARY
  5
3D
102
{ACAD_REACTORS
330
C
102
}
330
C
100
AcDbDictionary
281
     1
  3
CTABLESTYLE
350
1676
  3
DIMASSOC
350
3F
  3
HIDETEXT
350
3E
  3
PROJECTNAME
350
1677
  0
DICTIONARY
  5
1661
102
{ACAD_REACTORS
330
C
102
}
330
C
100
AcDbDictionary
281
     1
  3
ASEBlockHierarchyIndexRecord
350
1662
1001
DCO15
1040
1490087648.578
  0
LAYOUT
  5
1E
102
{ACAD_XDICTIONARY
360
1680
102
}
102
{ACAD_REACTORS
330
1A
102
}
330
1A
100
AcDbPlotSettings
  1

  2
Ploter HP500
  4

  6

 40
0.0
 41
0.0
 42
0.0
 43
0.0
 44
0.0
 45
0.0
 46
0.0
 47
0.0
 48
0.0
 49
0.0
140
0.0
141
0.0
142
1.0
143
1.0
 70
   688
 72
     0
 73
     0
 74
     5
  7
monochrome.ctb
 75
    16
147
1.0
148
0.0
149
0.0
100
AcDbLayout
  1
Layout1
 70
     1
 71
     1
 10
0.0
 20
0.0
 11
420.0
 21
297.0
 12
0.0
 22
0.0
 32
0.0
 14
1.000000000000000E+20
 24
1.000000000000000E+20
 34
1.000000000000000E+20
 15
-1.000000000000000E+20
 25
-1.000000000000000E+20
 35
-1.000000000000000E+20
146
0.0
 13
0.0
 23
0.0
 33
0.0
 16
1.0
 26
0.0
 36
0.0
 17
0.0
 27
1.0
 37
0.0
 76
     0
330
1B
  0
LAYOUT
  5
26
102
{ACAD_XDICTIONARY
360
1684
102
}
102
{ACAD_REACTORS
330
1A
102
}
330
1A
100
AcDbPlotSettings
  1

  2
Ploter HP500
  4

  6

 40
0.0
 41
0.0
 42
0.0
 43
0.0
 44
0.0
 45
0.0
 46
0.0
 47
0.0
 48
0.0
 49
0.0
140
0.0
141
0.0
142
1.0
143
1.0
 70
   688
 72
     0
 73
     0
 74
     5
  7
monochrome.ctb
 75
    16
147
1.0
148
0.0
149
0.0
100
AcDbLayout
  1
Layout2
 70
     1
 71
     2
 10
0.0
 20
0.0
 11
12.0
 21
9.0
 12
0.0
 22
0.0
 32
0.0
 14
0.0
 24
0.0
 34
0.0
 15
0.0
 25
0.0
 35
0.0
146
0.0
 13
0.0
 23
0.0
 33
0.0
 16
1.0
 26
0.0
 36
0.0
 17
0.0
 27
1.0
 37
0.0
 76
     0
330
23
  0
LAYOUT
  5
22
102
{ACAD_XDICTIONARY
360
1682
102
}
102
{ACAD_REACTORS
330
1A
102
}
330
1A
100
AcDbPlotSettings
  1

  2
Ploter HP500
  4
User268
  6

 40
4.995333194732666
 41
16.97565841674804
 42
4.995330810546875
 43
16.97567749023437
 44
209.9733276367187
 45
296.9259948730469
 46
0.0
 47
0.0
 48
0.0
 49
0.0
140
0.0
141
0.0
142
1.0
143
1.0
 70
 11952
 72
     1
 73
     1
 74
     0
  7

 75
     0
147
1.0
148
-427.5957866592534
149
7.362384574453926
100
AcDbLayout
  1
Model
 70
     1
 71
     0
 10
0.0
 20
0.0
 11
12.0
 21
9.0
 12
0.0
 22
0.0
 32
0.0
 14
0.0
 24
0.0
 34
0.0
 15
0.0
 25
0.0
 35
0.0
146
0.0
 13
0.0
 23
0.0
 33
0.0
 16
1.0
 26
0.0
 36
0.0
 17
0.0
 27
1.0
 37
0.0
 76
     0
330
1F
  0
MLINESTYLE
  5
18
102
{ACAD_REACTORS
330
17
102
}
330
17
100
AcDbMlineStyle
  2
STANDARD
 70
     0
  3

 62
   256
 51
90.0
 52
90.0
 71
     2
 49
0.5
 62
   256
  6
BYLAYER
 49
-0.5
 62
   256
  6
BYLAYER
  0
ACDBPLACEHOLDER
  5
F
102
{ACAD_REACTORS
330
E
102
}
330
E
  0
TABLESTYLE
  5
1668
102
{ACAD_REACTORS
330
1667
102
}
330
1667
100
AcDbTableStyle
  3
Standard
 70
     0
 71
     0
 40
1.5
 41
1.5
280
     0
281
     0
  7
Standard
140
4.5
170
     2
 62
     0
 63
     7
283
     0
274
    -2
284
     1
 64
     0
275
    -2
285
     1
 65
     0
276
    -2
286
     1
 66
     0
277
    -2
287
     1
 67
     0
278
    -2
288
     1
 68
     0
279
    -2
289
     1
 69
     0
  7
Standard
140
6.0
170
     5
 62
     0
 63
     7
283
     0
274
    -2
284
     1
 64
     0
275
    -2
285
     1
 65
     0
276
    -2
286
     1
 66
     0
277
    -2
287
     1
 67
     0
278
    -2
288
     1
 68
     0
279
    -2
289
     1
 69
     0
  7
Standard
140
4.5
170
     5
 62
     0
 63
     7
283
     0
274
    -2
284
     1
 64
     0
275
    -2
285
     1
 65
     0
276
    -2
286
     1
 66
     0
277
    -2
287
     1
 67
     0
278
    -2
288
     1
 68
     0
279
    -2
289
     1
 69
     0
  0
DICTIONARYVAR
  5
1676
102
{ACAD_REACTORS
330
3D
102
}
330
3D
100
DictionaryVariables
280
     0
  1
STANDARD
  0
DICTIONARYVAR
  5
3F
102
{ACAD_REACTORS
330
3D
102
}
330
3D
100
DictionaryVariables
280
     0
  1
2
  0
DICTIONARYVAR
  5
3E
102
{ACAD_REACTORS
330
3D
102
}
330
3D
100
DictionaryVariables
280
     0
  1
1
  0
DICTIONARYVAR
  5
1677
102
{ACAD_REACTORS
330
3D
102
}
330
3D
100
DictionaryVariables
280
     0
  1

  0
XRECORD
  5
1662
102
{ACAD_REACTORS
330
1661
102
}
330
1661
100
AcDbXrecord
280
     1
330
1571
330
15A9
330
15D3
330
1660
  0
DICTIONARY
  5
1680
330
1E
100
AcDbDictionary
280
     1
281
     1
  3
ACAD_XREC_ROUNDTRIP
360
1681
  0
DICTIONARY
  5
1684
330
26
100
AcDbDictionary
280
     1
281
     1
  3
ACAD_XREC_ROUNDTRIP
360
1685
  0
DICTIONARY
  5
1682
330
22
100
AcDbDictionary
280
     1
281
     1
  3
ACAD_XREC_ROUNDTRIP
360
1683
  0
XRECORD
  5
1681
102
{ACAD_REACTORS
330
1680
102
}
330
1680
100
AcDbXrecord
280
     1
102
SHADEPLOT
 70
     0
102
SHADEPLOTRESLEVEL
 70
     2
102
SHADEPLOTCUSTOMDPI
 70
   300
  0
XRECORD
  5
1685
102
{ACAD_REACTORS
330
1684
102
}
330
1684
100
AcDbXrecord
280
     1
102
SHADEPLOT
 70
     0
102
SHADEPLOTRESLEVEL
 70
     2
102
SHADEPLOTCUSTOMDPI
 70
   300
  0
XRECORD
  5
1683
102
{ACAD_REACTORS
330
1682
102
}
330
1682
100
AcDbXrecord
280
     1
102
SHADEPLOT
 70
     0
102
SHADEPLOTRESLEVEL
 70
     2
102
SHADEPLOTCUSTOMDPI
 70
   300
  0
ENDSEC
  0
EOF
